Itchyworms - Akin Ka Na Lang Text Guitar Tab

Learn song with the online tabulature player
Akin ka na lang
tabbed by:yen duldulao.,(ivd11@yahoo.com)

 C       D7     Em7    A7(9)   Eb7   Em+M7
e|-3-|  |-5-|  |-7-|   |-0-|  |-6-|  |----|
B|-5-|  |-7-|  |-8-|   |-2-|  |-8-|  |-2--|
G|-3-|  |-5-|  |-7-|   |-0-|  |-6-|  |-2--|
D|-5-|  |-7-|  |-9-|   |-2-|  |-8-|  |-2--|
A|-3-|  |-5-|  |-7-|   |---|  |-6-|  |-2--|
E|---|  |---|  |---|   |---|  |---|  |----|

 EbM7    BbM7    F7
e|-6-|  |-6-|  |-1-|    |-8--|
B|-8-|  |-6-|  |-1-|    |-11-|
G|-6-|  |-7-|  |-2-|    |-8--|
D|-8-|  |-6-|  |-1-| OR |-11-|
A|-6-|  |-8-|  |-3-|    |-8--|
E|---|  |-6-|  |-1-|    |----|

Intro: ( i just came up with this.,parang acoustic version.,pero sana magustuhan 
neo parin!)=D.,\..\, . . \m/    
   G               Em              C7          D7
e|------3------------(7)----------------------x----|
B|------3-------------8-------------5----5--5-x----|
G|------4-------------9-------------3----7--7-x----|
D|---5-------0-----9-------0-----5------------x----|-- >3X
A|--------------7-------------3----------7--7-x--0-| 
E|-3------------------------------------------x----|

   G            Em           Eb7         D7
e|------3------------(7)--------------------|
B|------3-------------8-------------8----7~-|
G|------4-------------9-------------6----5~-|
D|---5-------0-----9-------0-----8----------|
A|--------------7-------------6----------7~-|
E|-3----------------------------------------|

Intro: G-em-C7-D7 (3x)-G-Em hold-Eb7-D7

pwede nyong gamitin tong tab sa verse:
  G                Em              C7          D7
e|------3------------(7)----------------------x----|
B|------3-------------8-------------5----5--5-x----|
G|------4-------------9-------------3----7--7-x----|
D|---5-------0-----9-------0-----5------------x----|
A|--------------7-------------3----------7--7-x--0-| 
E|-3------------------------------------------x----|

 G            Em              F7         D7
e|------3------------(7)------------------------|
B|------3-------------8-------------11----7--7--|
G|------4-------------9-------------8-----5--5--|
D|---5-------0-----9-------0-----11-------------|
A|--------------7-------------8-----------7--7--|
E|-3--------------------------------------------|

Verse 1:
G    em        C7   D7           
 'Wag kang maniwala d'yan
G            em        F7      D7    
 'Di ka n'ya mahal talaga
G       Em     C7      D7          G      Em         C7     D7
 Sayang lang ang buhay mo kung mapupunta ka lang sa kanya
Em  Em+M7          Em7       A7(9)
   Iiwanan ka lang n'yan , mag-ingat ka
C7        Bm            Cm               D
 Dagdag ka lamang sa milyun-milyong babae n'ya

Chorus:
G           Bm                 C
 Akin ka na lang (akin ka na lang)
         D            G
Iingatan ko ang puso mo
           Bm                 C
Akin ka na lang (akin ka na lang)
  D
Wala nang hihigit pa sa 'yo

(Intro)
 
Verse 2: 
Use Verse 1 Chords

(Repeat Chorus)

Bridge:
EbM7    Dm               Cm     F  BbM7  
  Di naman sa sinisiraan ko ang pangit na yan
EbM7     Dm     Gm
  Wag ka dapat sa 'kin magduda
Bb  D
Hinding-hindi kita pababayaan

Chorus:
Repeat chorus twice