Itchyworms - Buwan Text Guitar Tab

Learn song with the online tabulature player
e----------------------------------------------------------|
B--------10--------10--------------------------------------|
G-9-9-8-7---9-9-8-7---9-9-8-7---------6---------9----------|
D------------------------------7-7-9-7---7-7-9-7---8-8-7-6-|
A----------------------------------------------------------|
E----------------------------------------------------------|

e----------------------------------------------------------|
B--------10--------10-----------------------------7-9------|
G-9-9-8-7---9-9-8-7---9-9-8-7---------6---------10---------|
D------------------------------7-7-9-7---7-7-9-7-----------|
A----------------------------------------------------------|
E----------------------------------------------------------|

hi sa sed armoc.
hi sa ceetwelb.
hi sa eye vee see.
para kay bu.