Itchyworms - Gusto Ko Lamang Sa Buhay Text Guitar Tab

Learn song with the online tabulature player
-------------------------------------------------------------------------------
                     GUSTO KO LAMANG SA BUHAY - Itchyworms
-------------------------------------------------------------------------------

Tabbed by: Lino
Email: lynus4144@yahoo(dot)com

Tuning: Standard

Version 2
Comments, corrections, and ratings are welcome!

Chords:
   D  D7M  G7M  B5  A5  G5  A2  Bm  Bb5  F5  D5
e|-2---2----2---x---x---x---0---2----x---x---x-|
B|-3---2----3---x---x---x---0---3----x---x---x-|
G|-2---2----0---4---2---x---2---4----3---x---7-|
D|-0---0----0---4---2---5---2---4----3---3---7-|
A|----------2---2---0---5---0---2----1---3---5-|
E|----------3-----------3----------------1-----|


Intro:

e|-10-x-10--------9-x-9---------------10-x-10--------9-x-9--------------|
B|----------------------------------------------------------------------|
G|---------9-11-9-------9-11-9-11-9-----------9-11-9-------9-11-9-11-9--|
D|----------------------------------------------------------------------|
A|----------------------------------------------------------------------|
E|----------------------------------------------------------------------|

D-D7M G7M  x2

B5
Ayokong maghintay pa sa imposible
A5
Ayoko ng mga romatikong sine
G5                                  A5
Ayoko nang umasa pa sa walang silbi

B5
Ayokong tumawid pag pinagbabawal
A5
Ayoko ng kapeng maraming asukal
G5                                   A5
Ayokong bumili ng underwear na mahal

Chorus:
D                  D7M        G7M
Gusto ko lamang sa buhay ay yakapin mo ako
D                  D7M        G7M
Gusto ko lamang sa buhay ay yakapin mo ako
A2              Bm
Hindi naman ako milyonaryo
A2                Bm
Basta't araw-araw yakap mo ko

e|--------------------------|
B|--------------------------|
G|--------------------------|
D|-5--4----2--0-------------|
A|----------------2-0-----0-|
E|----------------------3---| D-D7M G7M
   Feeling ko ang yaman yaman ko

D-D7M G7M

B5
Ok lang kung 'di maging presidente
A5
Ok lang kung mawalan ng kuryente
G5                                       A5
Ok lang kung ang bumbilya'y walang sindi

B5
Ok lang kung ketchup lamang ang ulam
A5
Ang gulay ay hindi naman kailangan
G5                                           A5
Basta't sa sandwich mo ako ang iyong palaman


Chorus:
D                  D7M        G7M
Gusto ko lamang sa buhay ay yakapin mo ako
D                  D7M        G7M
Gusto ko lamang sa buhay ay yakapin mo ako
A2              Bm
Hindi naman ako milyonaryo
A2                Bm
Basta't araw-araw yakap mo ko

e|--------------------------|
B|--------------------------|
G|--------------------------|
D|-5--4----2--0-------------|
A|----------------2-0-----0-|
E|----------------------3---| D-D7M
   Feeling ko ang yaman yaman ko

e|--------------------------|
B|--------------------------|
G|--------------------------|
D|-5--4----2--0-------------|
A|----------------2-0-----0-|
E|----------------------3---| D-D7M G7M
   Feeling ko ang yaman yaman ko


Bridge:
Bb5
Ang dami ko pang sinabi
Bb5
Tungkol sa aking sarili
F5
Lahat ng yun 'di na bale
F5
Ikaw lang ang importante

Bb5
Yakapin mo ako
Bb5
Lunurin sa iyo
G5
Sa loob ng 'yong mga bisig
A5                         D5 G5
Dama ko ang 'yong pag-ibig
               D5
Yakapin mo ako
                              G5
Gusto ko lamang sa buhay ay yakapin mo ako

[Repeat Chorus]

Outro: D-D7M G


| /  slide up
| \  slide down
| h  hammer-on
| p  pull-off
| ~  vibrato
| +  harmonic
| x  Mute note