Itchyworms - Kabataang Pinoy Text Guitar Tab

Learn song with the online tabulature player
-------------------------------------------------------------------------------
                             Kabataang Pinoy - Itchyworms
-------------------------------------------------------------------------------
Tabbed by:Al Hilado     
Email:drakenguard99@yahoo.com

pinoy big brother theme by the
itchyworms.. kabataang pinoy..

hi p sa mga taga HCDC students 
dabaw sana magustuhan nyo e2.. 
or comments pag may mali..

EDIT: INUPDATE q na tama na 2 cgoro!!

Tuning:standard

Intro:

e|---------------------------------|
B|-7-----8-------5-----5-------6\5-|
G|-7-----7-------5-----5-------5---|
D|---------------------------------|> PM
A|---5-5---5-5-5---3-3---3-3-3-----|> PM
E|---------------------------------|> PM

e|---------------------------------|
B|-7-----8-------5-----5-------6\5-|
G|-7-----7-------5-----5-------5---|
D|---------------------------------|> PM
A|---5-5---5-5-5---3-3---3-3-3-----|> PM
E|---------------------------------|> PM

Preverse:

e|---------------------------------|
B|-7-----8-8-8-8-------------------|
G|-7-7-7-7-7-7-7-5-5-5-5-5-5-5-5-5-|
D|-7-7-7-7-7-7-7-5-5-5-5-5-5-5-5-5-|
A|-5-5-5-5-5-5-5-3-3-3-3-3-3-3-3-3-|
E|---------------------------------|
 |
 |
e|---------------------------------|
B|-7-----8-------5-----5-------6\5-|
G|-7-----7-------5-----5-------5---|
D|---------------------------------|> PM
A|---5-5---5-5-5---3-3---3-3-3-----|> PM
E|---------------------------------|> PM

e|---------------------------------|
B|-7-----8-8-8-8-------------------|
G|-7-7-7-7-7-7-7-5-5-5-5-5-5-5-5-5-|
D|-7-7-7-7-7-7-7-5-5-5-5-5-5-5-5-5-|
A|-5-5-5-5-5-5-5-3-3-3-3-3-3-3-3-3-|
E|---------------------------------|
 |
 |
e|---------------------------------|
B|-7-----8-------5-----5-------6\5-|
G|-7-----7-------5-----5-------5---|
D|---------------------------------|> PM
A|---5-5---5-5-5---3-3---3-3-3-----|> PM
E|---------------------------------|> PM

e|---------------------------------|
B|-7-----8-8-8-8-------------------|
G|-7-7-7-7-7-7-7-5-5-5-5-5-5-5-5-5-|
D|-7-7-7-7-7-7-7-5-5-5-5-5-5-5-5-5-|
A|-5-5-5-5-5-5-5-3-3-3-3-3-3-3-3-3-|
E|---------------------------------|
 |
 |
e|---------------------------------|
B|-7-----8-------5-----5-------6\5-|
G|-7-----7-------5-----5-------5---|
D|---------------------------------|> PM
A|---5-5---5-5-5---3-3---3-3-3-----|> PM
E|---------------------------------|> PM

e|---------------------------------|
B|-7-----8-8-8-8-------------------|
G|-7-7-7-7-7-7-7-5-----------------|
D|-7-7-7-7-7-7-7-5-----------------|
A|-5-5-5-5-5-5-5-3-----------------|
E|---------------------------------|
 |
 |
e|---------------------------------|
B|-7-----8-------5-----------------|
G|-7-----7-------5-----------------|
D|---------------------------------|> PM
A|---5-5---5-5-5-------------------|> PM
E|---------------------------------|> PM

Verse :
 Barkada namin...        na nais abutin..
e|---------------------------------------|
B|---------------------------------------|
G|-7-----------5-------------------------|
D|-7-----------5-----------5-----------7-|
A|-5-----------3-----------5-----------7-|
E|-------------------------3-----------5-|
 |
 |
e|---------------------------------------|
B|---7-7-7/10---7-9\7-5-3----------------| 
G|---7-7-7/10---7-9\7-5-3----------------|
D|---------------------------------------|
A|---------------------------------------|
E|---------------------------------------|

pde rin cgoro 2 from (jhon_05)

e|-------------------------------------------------------------------------|
B|---7~-----8/10~--10-10\8--------------10~~-------------------------------|
G|---7~-7-9-9/11~-----11\9-7~------------9~~-------------------------------|
D|-------------------------------------------------------------------------|
A|-------------------------------------------------------------------------|
E|-------------------------------------------------------------------------|

 
 pangarap namin...
e|-----------------------------------------------------------------|
B|-----------------------------------------------------------------|
G|-----------------------------------------------------------------|
D|-7-7-7-7-7-7-7-7-7-7-7-7-7-7-7-7-5-5-5-5-5-5-5-5-5-5-5-5-5-5-5-5-|
A|-5-5-5-5-5-5-5-5-5-5-5-5-5-5-5-5-3-3-3-3-3-3-3-3-3-3-3-3-3-3-3-3-|
E|-----------------------------------------------------------------|
 |
 |
e|-----------------------------------------------------------------|
B|---------------------7-7-7/10----------------------7-9\7-5-3-----|
G|---------------------7-7-7/10----------------------7-9\7-5-3-----|
D|-----------------------------------------------------------------|
A|-----------------------------------------------------------------|
E|-----------------------------------------------------------------|
 
 sa lahat ng gagawin...
e|-----------------------------------------------------------------|
B|-----------------------------------------------------------------|
G|-----------------------------------------------------------------|
D|-----------------------------------------------------------------|
A|-5-5-5-5-5-5-5-5-5-5-5-5-5-5-5-5-7-7-7-7-7-7-7-7-7-7-7-7-7-7-7-7-|
E|-3-3-3-3-3-3-3-3-3-3-3-3-3-3-3-3-5-5-5-5-5-5-5-5-5-5-5-5-5-5-5-5-|
 |
 |
e|-----------------------------------------------------------------|
B|-------------------------------------------------7-7-7-7-7-7-7-7-|
G|-------------------------------------------------7-7-7-7-7-7-7-7-|
D|---------------------------------7-------------------------------|
A|---------------------------------7-------------------------------|
E|---------------------------------5-------------------------------|

Refrain:

 iba na tayo ngayon...                 kaya natin to....
e|---------------------------------------------------------|
B|---------------------------------------------------------|
G|-3-----------5------------3------------5-5-5-5-5-5-5-5-5-|
D|-3-----------5------------3------------5-5-5-5-5-5-5-5-5-|
A|-1-----------3------------1------------3-3-3-3-3-3-3-3-3-|
E|---------------------------------------------------------|
                                      PM----------------->
Chorus:
 kabataang pinoy...
e|---------------------------------------------------------|
B|---------------------------------------------------------|
G|-7-7-7-7-7-7-7-7-9-9-9-9-9-9-9-9-12-12-12-12-12-12-12-12-|
D|-7-7-7-7-7-7-7-7-9-9-9-9-9-9-9-9-12-12-12-12-12-12-12-12-|
A|-5-5-5-5-5-5-5-5-7-7-7-7-7-7-7-7-10-10-10-10-10-10-10-10-|
E|---------------------------------------------------------|
 |
 |
e|---------------------------------------------------------|
B|---------------------------------------------------------|
G|-7-7-7-7-7-7-7-7-9-9-9-9-9-9-9-9-12-12-12-12-12-12-12-12-|
D|-x-x-x-x-x-x-x-x-x-x-x-x-x-x-x-x- x- x- x- x- x- x- x- x-|
A|-5-5-5-5-5-5-5-5-7-7-7-7-7-7-7-7-10-10-10-10-10-10-10-10-|
E|---------------------------------------------------------|

 pagbutihan mo               pag asa ka ng buong mundo...
e|------------------------------------------------------------------|
B|------------------------------------------------------------------|
G|-7/9/12-7-7-7-7-7-7-7-7-9-9-9-9-9-9-9-9-9-12-12-12-12-12-12-12-12-|
D|-7/9/12-7-7-7-7-7-7-7-7-9-9-9-9-9-9-9-9-9-12-12-12-12-12-12-12-12-|
A|-5/7/10-5-5-5-5-5-5-5-5-7-7-7-7-7-7-7-7-7-10-10-10-10-10-10-10-10-|
E|------------------------------------------------------------------|
 |
 |
e|------------------------------------------------------------------|
B|------------------------------------------------------------------|
G|-7/9/12-7-7-7-7-7-7-7-7-9-9-9-9-9-9-9-9-9-12-12-12-12-12-12-12-12-|
D|-x/x/ x-x-x-x-x-x-x-x-x-x-x-x-x-x-x-z-x-x- x- x- x- x- x- x- x- x-|
A|-5/7/10-5-5-5-5-5-5-5-5-7-7-7-7-7-7-7-7-7-10-10-10-10-10-10-10-10-|
E|------------------------------------------------------------------|

 kabataang pinoy...
e|---------------------------------------------------------|
B|---------------------------------------------------------|
G|-7-7-7-7-7-7-7-7-9-9-9-9-9-9-9-9-12-12-12-12-12-12-12-12-|
D|-7-7-7-7-7-7-7-7-9-9-9-9-9-9-9-9-12-12-12-12-12-12-12-12-|
A|-5-5-5-5-5-5-5-5-7-7-7-7-7-7-7-7-10-10-10-10-10-10-10-10-|
E|---------------------------------------------------------|
 |
 |
e|---------------------------------------------------------|
B|---------------------------------------------------------|
G|-7-7-7-7-7-7-7-7-9-9-9-9-9-9-9-9-12-12-12-12-12-12-12-12-|
D|-x-x-x-x-x-x-x-x-x-x-x-x-x-x-x-x- x- x- x- x- x- x- x- x-|
A|-5-5-5-5-5-5-5-5-7-7-7-7-7-7-7-7-10-10-10-10-10-10-10-10-|
E|---------------------------------------------------------|

 kayang kaya mo..                     pinoy ako pinoy tayo..
e|------------------------------------------------------------------|
B|------------------------------------------------------------------|
G|-7/9/12-7-7-7-7-7-7-7-7-9-9-9-9-9-9-9-9-9-12-12-12-12-12-12-12-12-|
D|-7/9/12-7-7-7-7-7-7-7-7-9-9-9-9-9-9-9-9-9-12-12-12-12-12-12-12-12-|
A|-5/7/10-5-5-5-5-5-5-5-5-7-7-7-7-7-7-7-7-7-10-10-10-10-10-10-10-10-|
E|------------------------------------------------------------------|
 |
 |
e|------------------------------------------------------------------|
B|------------------------------------------------------------------|
G|-7/9/12-7-7-7-7-7-7-7-7-9-9-9-9-9-9-9-9-9-12-12-12-12-12-12-12-12-|
D|-x/x/ x-x-x-x-x-x-x-x-x-x-x-x-x-x-x-z-x-x- x- x- x- x- x- x- x- x-|
A|-5/7/10-5-5-5-5-5-5-5-5-7-7-7-7-7-7-7-7-7-10-10-10-10-10-10-10-10-|
E|------------------------------------------------------------------|


Bridge:
e|---------------------------------|
B|-7-----8-------5-----5-------6\5-|
G|-7-----7-------5-----5-------5---|
D|---------------------------------|> PM
A|---5-5---5-5-5---3-3---3-3-3-----|> PM
E|---------------------------------|> PM

e|---------------------------------|
B|-7-----8-------5-----5-------6\5-|
G|-7-----7-------5-----5-------5---|
D|---------------------------------|> PM
A|---5-5---5-5-5---3-3---3-3-3-----|> PM
E|---------------------------------|> PM   

e|---------------------------------|
B|-7-----8-8-8-8-------------------|
G|-7-7-7-7-7-7-7-5-5-5-5-5-5-5-5-5-|
D|-7-7-7-7-7-7-7-5-5-5-5-5-5-5-5-5-|
A|-5-5-5-5-5-5-5-3-3-3-3-3-3-3-3-3-|
E|---------------------------------|
 |
 |
e|---------------------------------|
B|-7-----8-------5-----5-------6\5-|
G|-7-----7-------5-----5-------5---|
D|---------------------------------|> PM
A|---5-5---5-5-5---3-3---3-3-3-----|> PM
E|---------------------------------|> PM

e|---------------------------------|
B|-7-----8-8-8-8-------------------|
G|-7-7-7-7-7-7-7-5-----------------|
D|-7-7-7-7-7-7-7-5-----------------|
A|-5-5-5-5-5-5-5-3-----------------|
E|---------------------------------|
 |
 |
e|---------------------------------|
B|-7-----8-------5-----------------|
G|-7-----7-------5-----------------|
D|---------------------------------|> PM
A|---5-5---5-5-5-------------------|> PM
E|---------------------------------|> PM

verse 
refrain
chorus                                   

Solo: 

Bb-C-Bb-C 

from (jhon 05, galing) tama 2!! i think!! 

e|-------------------------------------------------|
B|-------------------------------------------------|
G|---7~--7-7-9-10p9\7-5h7p5-5~--5h7----------------|
D|----------------------------------5h7-5~~~-\\\---|
A|-------------------------------------------------|
E|-------------------------------------------------|

e|-------------------------------------------------|
B|-------------------8-8/10-10-10--13\12 10~~~\\\--|
G|--///7-7-9-10p9\7-7-7----------------------------|
D|-------------------------------------------------|
A|-------------------------------------------------|
E|-------------------------------------------------|

repeat Chorus
the end with
e|---------------------------------|
B|-7-----8-------5-----5-------6\5-|
G|-7-----7-------5-----5-------5---|
D|---------------------------------|> PM
A|---5-5---5-5-5---3-3---3-3-3-----|> PM
E|---------------------------------|> PM

e|---------------------------------|
B|-7-----8-------5-----5-------6\5-|
G|-7-----7-------5-----5-------5---|
D|---------------------------------|> PM
A|---5-5---5-5-5---3-3---3-3-3-----|> PM
E|---------------------------------|> PM

e|---------------------------------|
B|-7-----8-8-8-8-------------------|
G|-7-7-7-7-7-7-7-5-5-5-5-5-5-5-5-5-|
D|-7-7-7-7-7-7-7-5-5-5-5-5-5-5-5-5-|
A|-5-5-5-5-5-5-5-3-3-3-3-3-3-3-3-3-|
E|---------------------------------|
 |
 |
e|---------------------------------|
B|-7-----8-------5-----5-------6\5-|
G|-7-----7-------5-----5-------5---|
D|---------------------------------|> PM
A|---5-5---5-5-5---3-3---3-3-3-----|> PM
E|---------------------------------|> PM

e|---------------------------------|
B|-7-----8-8-8-8-------------------|
G|-7-7-7-7-7-7-7-5-----------------|
D|-7-7-7-7-7-7-7-5-----------------|
A|-5-5-5-5-5-5-5-3-----------------|
E|---------------------------------|
 |
 |
e|---------------------------------|
B|-7-----8-------5-----------------|
G|-7-----7-------5-----------------|
D|---------------------------------|> PM
A|---5-5---5-5-5-------------------|> PM
E|---------------------------------|> PM

| /  slide up
| \  slide down
| h  hammer-on
| p  pull-off
| ~  vibrato
| +  harmonic
| x  Mute note
| PM palm mute
===============================================================================