Itchyworms - Misis Fely Nimfa Ang Pangalan Text Guitar Tab

Learn song with the online tabulature player
MISS FELY NIMFA ANG PANGALAN by The Itchyworms


VERSE:
Em                  Am
 May kilala 'kong babae
D                   G
 Papalit-palit ng lalake
Em                  Am
 Pero hindi naman sabay-sabay
D                    G
 Kinakasal sila't naghihiwalay


REFRAIN:
E                     Am
 Naka-ilan na siya ngayon
C                G
 Iba-iba, taon-taon
Em                 Am
 Apelyido niya'y nadaragdagan
D                C - G    (pause)
 Fely Nimfa ang pangalan


CHORUS:
CHORUS:
(Palm Mute)
       C                                           G
 Misis Fely Nimfa - Tan - Mercado - dela Cruz - Garcia - Gomez - Ong - 
   Em
Bermudez - Anderson
 C                                           G           Em
 Lopez - Perez - Tiu - Padilla - Roblez - dela Rosa - Bautista
              Am             D             G
 Kalimutan mo na nga sila, sa akin ka na mapunta


ADLIB:

e|--------------------------------------------------|
B|-10/12-12-12-12-9h10p8-10---10-10-10-10-8----8----|
G|--------------------------9---------------11---7--|
D|--------------------------------------------------|
A|--------------------------------------------------|
E|--------------------------------------------------|

e|---------------------------------------------------------------------|
B|-12-12-12-12-12-10-8-10-10-10/12---10-10-10-10-10-8----8-8-10-10/12--|
G|---------------------------------9------------------11---------------|
D|---------------------------------------------------------------------|
A|---------------------------------------------------------------------|
E|---------------------------------------------------------------------|

e|-10-10-10-10-10-10-10-8--8-8-8-8-8-10-8-----|
B|----------------------------------------12--|
G|--------------------------------------------|
D|--------------------------------------------|
A|--------------------------------------------|
E|--------------------------------------------|

e|---------------------------------------------------------------|
B|-10/12-12-12-12-12-10-8-8h10-10-12----10-10-10-10-12-10-10~-8--|
G|-----------------------------------9---------------------------|
D|---------------------------------------------------------------|
A|---------------------------------------------------------------|
E|---------------------------------------------------------------|


CHORUS:
(Palm Mute)
       C                                           G
 Misis Fely Nimfa - Tan - Mercado - dela Cruz - Garcia - Gomez - Ong - 
   Em
Bermudez - Anderson
 C                                           G           Em
 Lopez - Perez - Tiu - Padilla - Roblez - dela Rosa - Bautista
              Am             D             G
 Wag ka nang maghanap ng iba, sa akin ka liligaya
                     Am          D                G   
 Kung sa akin ka nag-uumpisa, di dapat wala nang iba


This is my first tab:) hope you'll like it
Suggestions? email me at arwinmeister14@yahoo.com


Tab by ArwinMeister14