Itchyworms - Penge Naman Ako Nyan Text Guitar Tab

Learn song with the online tabulature player
Penge Naman Ako Nyan Tab by Itchyworms,, www.Ultimate-Guitar.Com


Title       : Penge Naman Ako N'Yan
Artist      : Itchyworms
Ear tabber  : MICHAEL JOHN D. MOLINA
Address     : GOMEZ ST., SAN ANDRES, CABATUAN, ISABELA
E-mail add  : mjdm_26@yahoo.com
Contact no  : 09159430476
School      : UNIVERSITY OF ST. LOUIS TUGUEGARAO 
              BSCE-5
Date        : APRIL 28, 2009


INTRO:
GUITAR I:
e|---------------------------------------------------------|
B|---------------------------------------------------------|
G|-13-13-13-13-/-11-------------13-13-13-13-/-11---9-9-9-9-|
D|--x--x--x--x-x-x---7-7-7-7-----x--x--x--x-x-x----9-9-9-9-|
A|-11-11-11-11-/-9---7-7-7-7----11-11-11-11-/-9----7-7-7-7-|
E|-------------------5-5-5-5-------------------------------|
GUITAR II:
e|-------------------------------------------------------|
B|-------------------------------------------------------|
G|-13-13-13-13--11-9---------------13-13-13-13-11-9------|
D|------------------11-----------------------------9-----|
A|-------------------------------------------------------|
E|-------------------------------------------------------|

GUITAR I:
e|----------------------------------------------------------------|
B|----------------------------------------------------------------|
G|-13-13-13-13-/-11-------------13-13-13-13-/-11---9-9-9-9-9-9-9-9|
D|--x--x--x--x-x-x---7-7-7-7-----x--x--x--x-x-x----9-9-9-9-9-9-9-9|
A|-11-11-11-11-/-9---7-7-7-7----11-11-11-11-/-9----7-7-7-7-7-7-7-7|
E|-------------------5-5-5-5--------------------------------------|
GUITAR II:
e|-------------------------------------------------------|
B|-------------------------------------------------------|
G|-13-13-13-13--11-9---------------13-13-13-13-11-9------|
D|------------------11-----------------------------9-----|
A|-------------------------------------------------------|
E|-------------------------------------------------------|

VERSE :
e|--------------------------------------|
B|--------------------------------------|
G|-9-9-9-9--------------------4-4-4-4---|
D|-9-9-9-9--7-7-7-7--4-4-4-4--4-4-4-4---|
A|-7-7-7-7--7-7-7-7--4-4-4-4--2-2-2-2---|
E|----------5-5-5-5--2-2-2-2------------|
*                *    *              *
Penge naman ako nyan,ang panget na araw ko..

e|-------------------------------------|
B|-------------------------------------|
G|----------6-6-6-6--7-7-7-7-----------|
D|-6-6-6-6--6-6-6-6--7-7-7-7--9-9-9-9--|
A|-6-6-6-6--4-4-4-4--5-5-5-5--9-9-9-9--|
E|-4-4-4-4--------------------7-7-7-7--|
*             *     *     *
parang biglang napuno ng kamalasan

B|--------------------------------------|
G|-9-9-9-9--------------------4-4-4-4---|
D|-9-9-9-9--7-7-7-7--4-4-4-4--4-4-4-4---|
A|-7-7-7-7--7-7-7-7--4-4-4-4--2-2-2-2---|
E|----------5-5-5-5--2-2-2-2------------|
*             *       *          *     
Kelangang malimutan, ang araw na dumaan

e|-------------------------------------|
B|-------------------------------------|
G|----------6-6-6-6--7-7-7-7-----------|
D|-6-6-6-6--6-6-6-6--7-7-7-7--9-9-9-9--|
A|-6-6-6-6--4-4-4-4--5-5-5-5--9-9-9-9--|
E|-4-4-4-4--------------------7-7-7-7--|
*          *            *    *
Libangin mo ako kasi kailangan


REDRAIN:
B|------------------------|
G|------------------------|
D|---7-7-7-7--9-9-9-9-----|
A|---7-7-7-7--9-9-9-9-----|
E|---5-5-5-5--7-7-7-7-----|
*                            *
Kung ano man ang ininum mo, ipasa mo nainggit ako

B|-------------------------------|
G|---------------------4-4-4-4---|
D|---7-7-7-7--4-4-4-4--4-4-4-4---|
A|---7-7-7-7--4-4-4-4--2-2-2-2---|
E|---5-5-5-5--2-2-2-2------------|
*                
Bilisan mo at buksan mo na yan
*                    *   
At gaganda ang ating samahan

CHORUS:

GUITAR I:
e|-------------------------------------------------------------|
B|-------------------------------------------------------------|
G|----13-13-13-13-/-11-----------9--13-13-13-13-/-11---9-9-9-9-|
D|-7---x--x--x--x-x-x---7-7-7-7--9---x--x--x--x-x-x----9-9-9-9-|
A|-7--11-11-11-11-/-9---7-7-7-7--7--11-11-11-11-/-9----7-7-7-7-|
E|-5--------------------5-5-5-5--------------------------------|
   *                             *
GUITAR II:
e|-------------------------------------------------------|
B|-------------------------------------------------------|
G|-13-13-13-13--11-9---------------13-13-13-13-11-9------|
D|------------------11-----------------------------9-----|
A|-------------------------------------------------------|
E|-------------------------------------------------------|

               *                      *
Penge naman ako nyan,Penge naman ako nyan
               *                      *
Penge naman ako nyan,Penge naman ako nyan

VERSE :
e|--------------------------------------|
B|--------------------------------------|
G|-9-9-9-9--------------------4-4-4-4---|
D|-9-9-9-9--7-7-7-7--4-4-4-4--4-4-4-4---|
A|-7-7-7-7--7-7-7-7--4-4-4-4--2-2-2-2---|
E|----------5-5-5-5--2-2-2-2------------|
*                *    *              *        
Nakangiti na naman, dapat ay laging ganyan

e|-------------------------------------|
B|-------------------------------------|
G|----------6-6-6-6--7-7-7-7-----------|
D|-6-6-6-6--6-6-6-6--7-7-7-7--9-9-9-9--|
A|-6-6-6-6--4-4-4-4--5-5-5-5--9-9-9-9--|
E|-4-4-4-4--------------------7-7-7-7--|
*                  *           * *
Huwag nating pagbigyan ang kalungkutan

B|--------------------------------------|
G|-9-9-9-9--------------------4-4-4-4---|
D|-9-9-9-9--7-7-7-7--4-4-4-4--4-4-4-4---|
A|-7-7-7-7--7-7-7-7--4-4-4-4--2-2-2-2---|
E|----------5-5-5-5--2-2-2-2------------|
*                   *     *             *         
Minsan-minsan lang ito, at babalik din tayo.

e|-------------------------------------|
B|-------------------------------------|
G|----------6-6-6-6--7-7-7-7-----------|
D|-6-6-6-6--6-6-6-6--7-7-7-7--9-9-9-9--|
A|-6-6-6-6--4-4-4-4--5-5-5-5--9-9-9-9--|
E|-4-4-4-4--------------------7-7-7-7--|
*                *         * *
Sa malungkot na mundo kahirapan..


REPEAT REFRAIN:
REPEAT CHORUS:
ADLIB:
REPEAT REFRAIN:
REPEAT CHORUS:


LEGEND:
     /-------slide
     x-------dead string
     *-------indicate when the chords to be played                  
             with respect to the lyrics


If you have suggestion and comments txt me mjdm ( 09159430476)
Invite me in friendster na rin mjdm_26@yahoo.com.

Hi to all civil engineering student of UNIVERSITY OF ST. LOUIS TUGUEGARAO..