Itchyworms - Season Of Smiles Text Guitar Tab

Learn song with the online tabulature player
Song:Season of Smiles:
Album:Close-up Christmas CD[2006]
Artist:Itchyworms
Date Tabbed:November,2006
Guitar Tabber:Ryan Manongdo,/16/m/Montalban Rizal
              no_falter0X@yahoo.com(Friendster&YM)
              09229015724(Sun Cell)

  You can use Em nor E(POWER CHORD).Both chords have the same sound,It's up to you...I'm 95% sure in my tab!!

Gtr.Legends:
/\ - SLIDE
~  - LET IT RING
.  - PALM MUTING

Gtr.Tuning:Standard(Normal)

Intro prt.1:
Gtr.1:
e|------------------|
B|------------------|
G|-7~------7~--5~---|
D|-7~--2~--7~--5~---|
A|-5~--2~--5~--3~---|
E|-----0~-----------|

e|--------------------------------------------------------------------------------|
B|----12----15-12----12---------12-----------------10------------------8----------|
G|-12----12-------12-------9-12----12-9-12------11----11----11-------9---9----9---|
D|-------------------------------------------12----------12-------10-------10-----|
A|--------------------------------------------------------------------------------|
E|--------------------------------------------------------------------------------|


Intro prt.2:
Gtr.1:
e|------------------------------|
B|------------------------------|
G|-77777--99999--77777--55555---| 2x
D|-77777--99999--77777--55555---|
A|-55555--77777--55555--33333---|
E|------------------------------|

Gtr.2:
e|--------------------         ------------------------|
B|-------------------- Repeat  ------------------------|
G|-------------------- 3x Then ------------------------| 
D|--------------------         ------------------------|
A|-555-7777-999-7777--         --555-7777-999-101010---|
E|--------------------         ------------------------|

Verse 1:
It's christmas and youre feeling down...
Gtr.1:
e|------------------------------|
B|------------------------------|
G|------------------------------|
D|-77777--99999--77777--55555---|
A|-55555--77777--55555--33333---|
E|------------------------------|
   .....  .....  .....  .....

Gtr.2:Play Intro prt.1

Pre-Chorus:
Don't forget to wear a smile...
e|-----------------------|
B|-----------------------|
G|------5~---7~--77777---|
D|-7~---5~---7~--77777---|
A|-7~---3~---5~--55555---|
E|-5~--------------------|

Chorus:
Everytime I see you...
Gtr.1:
e|-------------------|
B|-------------------|
G|-------------------|
D|-777/999\777/555---|
A|-555/777\555/333---|
E|-------------------|

Gtr.2:Play Intro prt.2

I hope this season...
e|------------------------|
B|------------------------|
G|-4~---5~---4~---5~/7~---|
D|-4~---5~---4~---5~/7~---|
A|-2~---3~---2~---3~/5~---|
E|------------------------|

Repeat Intro prt.2:

Verse 2:Play Verse 1
This Christmasm,If you're all alone...

Repeat Pre-Chorus and Chorus:

Last Chord:
Gtr.1:   Gtr.2:
e|-----  -------|
B|-----  -------|
G|-5~--  -------|
D|-5~--  -------|
A|-3~--  -10~---|
E|-----  -------|


End...


Season of Smiles Lyrics:

Verse 1:
It's Christmas and you're feeling down
I'm gonna pass the smile around
It's gonna bring me closer to you

One smile will take away your frown
One smile will turn your day around
This season, there's no time to be blue


Pre-Chorus:
Don't forget to wear a smile
You'll never know who's smiling back at you


CHORUS:
Every time I see you
I hear there's something that'll make you smile
So kiss me if you want to
Don't you worry if we're apart
I hope this season
Will be a reason enough to make you smile

Verse 2:
This Christmas, if you're all alone
One smile will make you feel at home
I wanna bring you closer to me

One smile will make the season shine
This time, I wanna make you mine
I wanna spend this season with you


Repeat Pre-Chorus:
Repeat Chorus:


Every time I see you