Itchyworms - Suplado Ka Pala Sa Personal Text Guitar Tab

Learn song with the online tabulature player
SUPLADO KA PALA SA PERSONAL by Itchyworms


INTRO:
       Em
 Di mo ko pinapansin
       C9            G
 di ka pa tumitingin
              Bm
 Suplado ka pala sa personal....


e|------------------------------|
B|------------------------------|
G|-9-9-9--7-8-9-----------------| 4x
D|-9-9-9--7-8-9----7-7-7-5-6-7--|
A|-7-7-7--5-6-7----7-7-7-5-6-7--|
E|-----------------5-5-5-3-4-5--|


VERSE:
 C                                          G
 Sir, anlupit naman ng gig ninyo nung April 7
  C                                        G
 ako yung nakipag-apir sayo na naka-light orange
       C                                        Em
 Ang galing-galing niyo sir wala kayong ibang katulad

guitar 2:
  C               G
e|--7-7----7-7------2-2----2-2----|
B|--8-8-8--8-8-8----3-3-3--3-3-3--|
G|------9-----9---------4------4--| 4x
D|--------------------------------|
A|--------------------------------|
E|--------------------------------|


REFRAIN:
        Am         Bm     C           Bm
 Nang lumapit na sayo, bigla kang lumayo
     Am          Bm   C        D
 Lumabas ang totoo, niloko mo ako


CHORUS:
       Em                   C
 Di mo ko pinapansin, di ka pa tumitingin
G             Bm
 suplado ka pala sa personal
    Em                C
 Sa TV okay ka, yun pala kadiri ka
G             Bm
 suplado ka pala sa personal

C                          D
 Hindi tulad ng mga nasa pulitika
C                          D
 nakikitanim ng halaman sa kapwa niya
   Bm
 Suplado ka pala sa personal


BRIDGE:
 Bm                                   C
 Penge naman ng kahit na anong pang-remembrance
 Bm                                    C
 Sige na naman I'm one of your biggest fans
   Bm                                  C
 Andamot mo naman parang walang pinagsamahan
 D      D       D      D      D     D
 Brief, sticks, _____, _____, beer, necktie,
 D                    E
 kahit anong meron ka diyan


ADLIB:

e|--------------------------------|
B|--------------------------------|
G|-9-9-9--------------------------| 4x
D|-9-9-9-7---8/10-8--7-7-7-5-6-7--|
A|-7-7-7---9---------7-7-7-5-6-7--|
E|-------------------5-5-5-3-4-5--|

etc...


NITRAM
05-16-10
8:00 PM