Ivy Lies - I Lie Awake Text Guitar Tab

Learn song with the online tabulature player
Tabbed by: Michelle

Verse 1
(Nothing)

Chorus 1 (Somebody help me...)
e|----4-6-10---4-6-10--------|
B|--4--------4---------------|
G|---------------------------|
D|---------------------------|
A|---------------------------|
E|---------------------------|

Interlude and "Tonight's fears die..."
e|-------------------------------|
B|-----4-------------6-----------|
G|---5-------5-----7-------7-----|
D|-6-------6---6-8-------8---8---|
A|-------6-------------8---------|
E|-------------------------------| (4x)

2nd "I lie awake...I want to feel something"
e|-------------------------------------------------------------------------|
B|----------------------------13-13-13h-14-14-14-14-13-16----14-13-16------|
G|---------------13-13-13h-15-----------------------------15----------15---|
D|-13-13-13h-15------------------------------------------------------------|
A|-------------------------------------------------------------------------|
E|-------------------------------------------------------------------------|

Bridge (Oh and you know...)
e|-------------------------------------------------------------------------------------------------|
B|-------------------------------------------------------------------------------------------------|
G|--------------------------------------------------13h15-15-15-15p13-13-13-11h13-13-13-13p11-11-11|
D|11h-13-13-13-13-13-13-13-11h-13-13-13/-15-15-15-15-----------------------------------------------|
A|-------------------------------------------------------------------------------------------------|
E|-------------------------------------------------------------------------------------------------|
(2x)

Chorus 2 (Somebody help me...)
e|-------------------------------|
B|-----4-------------6-----------|
G|---5-------5-----7-------7-----|
D|-6-------6---6-8-------8---8---|
A|-------6-------------8---------|
E|-------------------------------| (5x)

Outro (Sleep, repeat, trace...)
e|-------------------------------------------------------------------------------------------------|
B|-------------------------------------------------------------------------------------------------|
G|--------------------------------------------------13h15-15-15-15p13-13-13-11h13-13-13-13p11-11-11|
D|11h-13-13-13-13-13-13-13-11h-13-13-13/-15-15-15-15-----------------------------------------------|
A|-------------------------------------------------------------------------------------------------|
E|-------------------------------------------------------------------------------------------------|
(4x)

e|-----------------|
B|-----------------|
G|-11h-13-13-13-13-|
D|-----------------|
A|-----------------|
E|-----------------| (2x)

************************************

| /   slide up
| h   hammer-on
| p   pull-off

************************************