J-Rocks - Kau Curi Lagi Feat Prisa Text Guitar Tab

Learn the song with the online tablature player
                         KAU CURI LAGI - J-rocks

It is cool bassline and it even has a bass solo. Maybe I will tab more songs
of this band in the future. Good luck.

Also, of you don't want to play all the fills, you always can play only the
main notes, usually it is the first in each |----|

INTRO
(The x here is just to divide 4 beats, so is easier to you to get the time)

G|--------------------------------|  |--------------------------------|
D|------------------------------5-|  |------------------------------2-|
A|--------------------------------|  |--------------------------2-5---|
E|3---3---3-2-3-2-3---3---3-3-3---|  |3---3---3-2-3-2-3---3---3-------|
  x               x                   x               x
G|--------------------------------|  |--------------------------------|
D|--------------------------------|  |--------------------------------|
A|------------------------7---5-7-|  |--------------------7-----5-0-2-|
E|0---0---0-0-0-0-0---0-----0-----|  |0---0---0-0-0-0-0-0---0-0-------|
  x               x                   x               x

VERSES A:

G|--------------------------------|  |--------------------------------|
D|--------------------------------|  |--------------------------------|
A|3-----3-3-----3---3---3-3---0-3-|  |2-----2-2-----2---2---2-2-----2-|
E|--------------------------------|  |----------------------------3---|

G|--------------------------------|  |--------------------------------|
D|--------------------------------|  |--------------------------------|
A|3-----3-3-----3---3---3-3---5-7-|  |----------------------------2---|
E|--------------------------------|  |0-----0-0-----0---0---0-3-5---3-|

G|--------------------------------|  |--------------------------------|
D|--------------------------------|  |------------------------2-------|
A|3-----3-3-----3---3---3-3---0-3-|  |2-----2-2---2---------------2-3-|
E|--------------------------------|  |----------3---0---0---0---0-----|

G|--------------------------------|  |--------------------------------|
D|--------------------------------|  |--------------------------------|
A|------------------------------7-|  |5-----5-5-----5---5---5-5-----2-|
E|5-----5-5-----5---5---5-5---5---|  |--------------------------0-3---|

VERSES B:
(when the guy starts to sing alone)

G|--------------------------------|  |--------------------------------|
D|--------------------------------|  |--------------------------------|
A|3-----3-3-----3---3---3-3---0-3-|  |2-----2-2-----2---2---2-2-----2-|
E|--------------------------------|  |--------------------------0-3---|

G|--------------------------------|  |--------------------------------|
D|--------------------------------|  |--------------------------------|
A|3-----3-3-----3---3---3-3---5-7-|  |--------------------7---5---2---|
E|--------------------------5-----|  |0-----0-0-----0---0---0---0---3-|

(the woman starts to sing alone)
G|--------------------------------|  |--------------------------------|
D|--------------------------------|  |----------------------2---------|
A|3-----3-3-----3---3---3-3---0-3-|  |2-----2-2---2-------------------|
E|--------------------------------|  |----------3---0---0-0---0-0-3-3-|

G|--------------------------------|  |--------------------------------|
D|--------------------------------|  |------------------7---0/5---0---|
A|---------------------------5/7--|  |5-----5-5-----5---------------0-|
E|5-----5-5-----5---5---5-5-------|  |--------------------------------|

CHORUS

G|--------------------------------|  |--------------------------------|
D|--------------------4-5-4-------|  |--------------------------------|
A|3---3---3---5-3---5-------0---0-|  |2---2---2---0-2---2-3-2-0---0-2-|
E|----------3-----------------3---|  |----------2---------------3-----|

G|--------------------------------|  |--------------------------------|
D|--------------------------------|  |------------4-5-----7---5-------|
A|0---0---0---2-0---0-2-0-3-3-2-0-|  |----------5-------5---5---5-0-2-|
E|----------0---------------------|  |3---3---3-----------------------|

G|--------------------------------|  |--------------------------------|
D|----------------------5-4-------|  |--------------------------------|
A|3---3---3---5-3---3-5-----3---0-|  |2---2---2---2-------7---5---2-3-|
E|----------3-----------------3---|  |----------2---0---0---0---0-----|

G|--------------------------------|  |--------------------------------|
D|--------------------------------|  |--------------------------------|
A|0---0-0-0---2-0---0-0-0-2-3-0-3-|  |5---5---5---7-5-5-3-3-2-2-0-5-0-|
E|----------0---------------------|  |----------5---------------------|

Then you need to play the VERSES A again, it is almost the same thing, but
there is one cool small variation so I will transcribe it
(but the previous Verse A fits too):

VERSES A:

G|--------------------------------|  |--------------------------------|
D|--------------------------------|  |--------------------------------|
A|3-----3-3-3---3---3---3-3---0-3-|  |2-----2-2-----2---2---2-2-----2-|
E|--------------------------------|  |--------------------------0-3---|

G|--------------------------------|  |--------------------------------|
D|--------------------------------|  |--------------------5---4-------|
A|3-----3-3-----3---3---3-3---5-7-|  |----------5-6-7~----------5-2---|
E|--------------------------------|  |0-----0-7---------0---0-------3-|

G|--------------------------------|  |--------------------------------|
D|--------------------------------|  |------------------------2-------|
A|3-----3-3-----3---3---3-3---0-3-|  |2-----2-2---2---------------2-3-|
E|--------------------------------|  |----------3---0---0-0-0---0-----|

G|--------------------------------|  |--------------------------------|
D|--------------------------------|  |------------------7-0-0/5---0---|
A|---------------------------5/7--|  |5-----5-5-----5-5-------------0-|
E|5-----5-5-----5---5---5-5-------|  |--------------------------------|

CHORUS again
maybe there is diferents fills, but not too different than before
so I didn't bother to write it again

BASS SOLO

G|---------------8/12-10-8-7--------|  |------------------------------------|
D|1-----/8-8-----------------8\--1--|  |0----/7-7------/12--10--7h8p7-------|
A|----------------------------------|  |------------------------------8-5-0-|
E|----------------------------------|  |------------------------------------|

G|------5---------------7---------|  |------8--------------------------|
D|--------------------------------|  |---------------------------------|
A|3-----------3---5-----------5---|  |6-------------6-8--8-8-8-8-8-8-8-|
E|----------3---------------5-----|  |---------------------------------|

GUITAR SOLO

G|----------------------6-5-------|  |--------------------------------|
D|4---4---4---6-4-----4-----6-----|  |3---3---3-----3---3-------------|
A|----------4-------4---------4-6-|  |----------3-6-------6-4-3-4-6-3-|
E|--------------------------------|  |--------------------------------|

G|----------------------6-5-------|  |--------------------------------|
D|4---4---4---6-4-----4-----6-----|  |3---3---3-----3---4-3-----------|
A|----------4-------4---------4-6-|  |----------3-6---------6-4-3-4---|
E|--------------------------------|  |------------------------------4-|

G|--------------------------------|  |--------------------------------|
D|--------------------------------|  |--------------------------------|
A|--------------------------------|  |--------------------------------|
E|5---5---5-0-7-5---0-5-0-5-0-5-7-|  |4---4---4-4-2-4---4-2-0-4-5-4-0-|

G|--------------------------------|  |--------------------------------|
D|--------------------------------|  |--------------------------------|
A|--------------------------------|  |--------------------------------|
E|2-2-2-2-2---4-4-4-4-4---4---4---|  |5-5-5-5-5---7.------------------|