Jack Ingram - Wherever You Are Text Guitar Tab

Learn the song with the online tablature player
                             WHEREVER YOU ARE - Jack Ingram

e|---------------------------------------------------------------------------|
B|---------------------------------------------------------------------------|
G|------------7---6---7------7---6---7-------7---6---7--------4--------------|
D|--------0--------------7---------------7---------------5--------7-----0----|
A|---------------------------------------------------------------------------|
E|---------------------------------------------------------------------------|

e|---------------------------------------------------------------------------|
B|---------------------------------------------------------------------------|
G|-------------7---6---7-------7---6---7-------7---6---7-------4-------------|
D|--------0----------------7---------------7---------------5-------7-----0---|
A|---------------------------------------------------------------------------|
E|---------------------------------------------------------------------------|