Jack Johnson - Breakdown Text Guitar Tab

Learn the song with the online tablature player
Intro/Verse
e|-------------8---------------------7------------|
b|-------8--------8-----8------8--------8-----8---|
g|----------9--------9------------9--------9------|
d|---10---------------------9---------------------|
a|------------------------------------------------|
E|------------------------------------------------|

e|-------------5---------------------3------------|
b|-------5--------5-----5------3--------3-----3---|
g|----------5--------5------------4--------4------|
d|----7---------------------5---------------------|
a|------------------------------------------------|
E|------------------------------------------------|

Chorus
I need this old train to breakdown...)
e|----8--------7--------5--------3---------|
b|----8--------8--------5--------3---------|
g|----9--------9--------5--------4---------|
d|---10--------9--------7--------5---------|
a|---10--------7--------7--------5---------|
E|----8-----------------5--------3---------|

Bridge
I want to break on down...)
e|----3--------------------------|
b|----5-------/8--------5--------|
g|----5-------/9--------7--------|
d|----5-------/9--------7--------|
a|----3-------/7--------5--------|
E|-------------------------------|

Give thanks to John B.