Jack Johnson - Cocoon Text Guitar Tab

Learn song with the online tabulature player
Hello, this is how I play it, I think it sounds right, here it is. I got this from 
tab in this page, I'm just putting it how I play it.

Intro

|-------5-—-4h5-------------5----4/5--------|
|---5-----0-----0---5---5-----0------0-5-0--|
|-----6-----------6-------6-----------------|
|-------7-------------------7---------------|
|---0-------7--------------------7----------|
|-----------------------5-------------------|

|-------5-—-4h5-------------5----4/5--------|
|---5-----0-----0---5---5-----0------0-5-0--|
|-----6-----------6-------6-----------------|
|-------7-------------------7---------------|
|---0-------7--------------------7----------|
|-----------------------5-------------------|

Verses

       A                    C#m
|-------5---------5-----------4---------4-----|
|---5-----5---5-----5-----5-----5---5------5--|
|-----6---------6-----------6---------6-------|
|---------------------------------------------|
|-------------------------4---------4---------|
|---5---------5-------------------------------|

      D           C#m          Bm
|-------2-----------4-----------2---------2----|
|---3-----3-----5-----5-----3-----3---3-----3--|
|-----2-----------6-----------4---------4------|
|---0------------------------------------------|
|---------------4-----------2---------2--------|
|----------------------------------------------|

       E
|-------0---------0---------0---------0----|
|---0-----0---0-----0---0-----0---0-----0--|
|-----1---------1---------1---------1------|
|------------------------------------------|
|------------------------------------------|
|---0---------0---------0---------0--------|

Pre Chorus

   Bm                      E
|-------2---------2-----------0---------0----|
|---3-----3---3-----3-----0-----0---0-----0--|
|-----4---------4-----------1---------1------|
|--------------------------------------------|
|---2---------2------------------------------|
|-------------------------0---------0--------|

Chorus
   A            C#m          D         E
|-------5-----------4-------2---2--------0--|
|---5-----------5-------------3--------0-0--|
|-----6-----------6--------------------1----|
|---------------------------0---------------|
|---------------4---------------------------|
|---5---------------------------------------|

Bridge
   A                      C#m
|-------5---------5-----------4---------4----|
|---5-----5---5-----5-----5-----5---5-----5--|
|-----6---------6-----------6---------6------|
|--------------------------------------------|
|-------------------------4---------4--------|
|---5---------5------------------------------|

     F#m                    D
|-------2---------2-------2---------2--------|
|---2-----2---2-----2-------3---3-----3---3--|
|-----2---------2-------------2---------2----|
|-------------------------0---------0--------|
|--------------------------------------------|
|---2---------2------------------------------|

Outro
|---5---5-------7---7-------9----9------7---7----|
|-----5---5-------5---5-------0---0-------5---5--|
|---6---6-------6---6-------6---6-------6---6----|
|------------------------------------------------|
|------------------------------------------------|
|------------------------------------------------|

|---5---5-------7---7-------9----9------7---7-------5---5----|
|-----5---5-------5---5-------0---0-------5---5-------5---5--|
|---6---6-------6---6-------6---6-------6---6-------6---6----|
|------------------------------------------------------------|
|------------------------------------------------------------|
|------------------------------------------------------------|

Song Structure
Intro
Verse x2
Pre Chorus
Chorus x4
Intro
Verse x2
Pre Chorus
Chorus x4
Bridge x2
Pre Chorus
Chorus x4
Intro
Outro