Jack Johnson - Losing Hope Text Guitar Tab

Learn song with the online tabulature player
-------------------------------------------------------------------------------
                             Losing Hope – Jack Johnson

All music and lyrics written by and property of Jack Johnson
Tabbed by: Jackins
Email:jackins7@msn.com

Tuning: Standard 


Intro
     Am         C    G
e|------------------------------------------------------------------------|
B|-------1----------------------------------------------------------------|
G|-----2-----2-----0-----0------------------------------------------------|
D|---2-----2-----2-----0--------[x2]--------------------------------------|
A|-0-----------3----------------------------------------------------------|
E|-------------------3----------------------------------------------------|

Verse
     Am         C    G                 F
   I got a faulty parachute....
e|-------------------------------------1----------------------------------|
B|-------1-----------------------------1----------------------------------|
G|-----2-----2-----0-----0-------------2----------------------------------|
D|---2-----2-----2-----0--------[x4]---3----------------------------------|
A|-0-----------3-----------------------3----------------------------------|
E|-------------------3-----------------1----------------------------------|

     Am         C    G                 F
   Well somebody’s something...
e|-------------------------------------1----------------------------------|
B|-------0-----------------------------1----------------------------------|
G|-----2-----0-----0-----0-------------2----------------------------------|
D|---2-----2-----2-----0--------[x4]---3----------------------------------|
A|-0-----------3-----------------------3----------------------------------|
E|-------------------3-----------------1----------------------------------|
 
Chorus
   C      G       Am
  Losing hope is easy...
e|--------------------0-----0---------------------------------------------|
B|--------------------1-----1---------------------------------------------|
G|------0------0------2-----2---------------------------------------------|
D|----2------0-----2--2-----2---------------------------------------------|
A|-3------2------0----0-----0---------------------------------------------|
E|------------------------------------------------------------------------|

   Dm            G
  When your only friend is gone...
e|--1------------3--------------------------------------------------------|
B|--3------------0--------------------------------------------------------|
G|--2------------0--------------[x3]-------0---0-----0---0----------------|
D|--0------------0-----------------------2---2-----0---0------------------|
A|---------------2---------------------3---------2------------------------|
E|---------------3--------------------------------------------------------|

Interlude
     Am         C    G
e|------------------------------------------------------------------------|
B|-------1----------------------------------------------------------------|
G|-----2-----2-----0-----0------------------------------------------------|
D|---2-----2-----2-----0--------[x4]--------------------------------------|
A|-0-----------3----------------------------------------------------------|
E|-------------------3----------------------------------------------------|


Verse
     Am         C    G                 F
   The mark was left...
e|-------------------------------------1----------------------------------|
B|-------1-----------------------------1----------------------------------|
G|-----2-----2-----0-----0-------------2----------------------------------|
D|---2-----2-----2-----0--------[x4]---3----------------------------------|
A|-0-----------3-----------------------3----------------------------------|
E|-------------------3-----------------1----------------------------------|

Chorus
   C      G       Am
  Losing hope is easy...
e|--------------------0-----0---------------------------------------------|
B|--------------------1-----1---------------------------------------------|
G|------0------0------2-----2---------------------------------------------|
D|----2------0-----2--2-----2---------------------------------------------|
A|-3------2------0----0-----0---------------------------------------------|
E|------------------------------------------------------------------------|

   Dm            G
  When your only friend is gone...
e|--1------------3--------------------------------------------------------|
B|--3------------0--------------------------------------------------------|
G|--2------------0--------------[x3]-------0---0-----0---0----------------|
D|--0------------0-----------------------2---2-----0---0------------------|
A|---------------2---------------------3---------2------------------------|
E|---------------3--------------------------------------------------------|

Interlude
     Am         C    G
e|------------------------------------------------------------------------|
B|-------1----------------------------------------------------------------|
G|-----2-----2-----0-----0------------------------------------------------|
D|---2-----2-----2-----0--------[x4]--------------------------------------|
A|-0-----------3----------------------------------------------------------|
E|-------------------3----------------------------------------------------|

Verse
     Am         C    G                 F
   Feed The Fool...
e|-------------------------------------1----------------------------------|
B|-------1-----------------------------1----------------------------------|
G|-----2-----2-----0-----0-------------2----------------------------------|
D|---2-----2-----2-----0--------[x8]---3----------------------------------|
A|-0-----------3-----------------------3----------------------------------|
E|-------------------3-----------------1----------------------------------|

Chorus
   C      G       Am
  Losing hope is easy...
e|--------------------0-----0---------------------------------------------|
B|--------------------1-----1---------------------------------------------|
G|------0------0------2-----2---------------------------------------------|
D|----2------0-----2--2-----2---------------------------------------------|
A|-3------2------0----0-----0---------------------------------------------|
E|------------------------------------------------------------------------|

   Dm            G
  When your only friend is gone...
e|--1------------3--------------------------------------------------------|
B|--3------------0--------------------------------------------------------|
G|--2------------0----------[x3]-------0---0-----0---0--------------------|
D|--0------------0-------------------2---2-----0---0----------------------|
A|---------------2-----------------3---------2----------------------------|
E|---------------3--------------------------------------------------------|

Ending
C      G       Am
  Hanging on is easy...
e|--------------------0-----0---------------------------------------------|
B|--------------------1-----1---------------------------------------------|
G|------0------0------2-----2---------------------------------------------|
D|----2------0-----2--2-----2---------------------------------------------|
A|-3------2------0----0-----0---------------------------------------------|
E|------------------------------------------------------------------------|

   Dm            G
  When you’ve got a friend to call...
e|--1------------3--------------------------------------------------------|
B|--3------------0--------------------------------------------------------|
G|--2------------0--------------[x3]-------0---0-----0---0----------------|
D|--0------------0-----------------------2---2-----0---0------------------|
A|---------------2---------------------3---------2------------------------|
E|---------------3--------------------------------------------------------|

     Am         C    G
e|------------------------------------------------------------------------|
B|-------1----------------------------------------------------------------|
G|-----2-----2-----0-----0------------------------------------------------|
D|---2-----2-----2-----0--------[x2]--------------------------------------|
A|-0-----------3----------------------------------------------------------|
E|-------------------3----------------------------------------------------|


This is my first tab please rate =]

| /  slide up
| \  slide down
| h  hammer-on
| p  pull-off
| ~  vibrato
| +  harmonic
| x  Mute note
===============================================================================