Jack Johnson - Losing Keys Text Guitar Tab

Learn song with the online tabulature player
Hey everybody.  swags got this song almost all the way right in his earlier tab, but he 
out the little solo/chorus part, so i thought I'd add it.

Here is the solo/chorus.
e|-------------------------------------------------------------|
B|-------------------------------------------------------------|
G|--14-12------14-12-----14-------14-12------14-12-----14------|
D|--------14---------14-----------------14---------14----------|
A|-------------------------------------------------------------|
E|-------------------------------------------------------------|

e|-------------------------------------------------------------|
B|--15-12------------------------------------------------------|
G|--------14-12----------12-14>15------------------------------|
D|--------------14-12-14---------------------------------------|
A|-------------------------------------------------------------|
E|-------------------------------------------------------------|

        G
Don't worry
C                              G
Everybody in the room notices you
G
Sit back and relax
               C
The night is early
                  G
We are about to overdo it
Am7                                                D
So come and tell me something that you've already told me
Am7                                   D
Cause everybody's heard our lovely stories
                              G
I'm hoping some of them are true

            G
I've been losing lots of keys lately,
  D
I don't know what that means
                    Em                                             C
But maybe I've been better off with things that can't be locked at all
            G
I've been feeling kind of sea sick lately,
D
See you reaching to me gonna save me
Em                                         C
You were me, I would much rather take the fall

Am7
The world has its ways
D
To quiet us down
Am7
The world has its ways
D                           C
To quiet us down comes the rain
                        D
Down comes our spirits again
                     C
But down comes the strength
                   D
To lift us up and then...

-------------solo/chorus-------------

G   D    Em    C   x2

G          D
Been going upwind now
Em
For too long
C
Forget how
G
To let go
D
Seems too hard
Em
Too late now
C
To turn around

Am7
The world has its ways
D
To quiet us down
Am7
The world has its ways
D                           C
To quiet us down comes the rain
                         D
Down comes our spirits again
                 C
Down comes the strength
                   D
To lift us up and then...


-------------solo/chorus-------------


G   D    Em    C  repeat to fade