Jack Johnson - People Watching Text Guitar Tab

Learn song with the online tabulature player
People Watching - Jack Johnson

Tabbed By: Joe Z
Email: Mosdef248
Tuning: Standard


 This song is really easy....enjoy

Intro:

e-----------------------------------------------|
B-----------------------------------------------|
G--4/6----13-11------------99/77/66/44----------|
D--x/x----x--x----9/7------xx/xx/xx/xx----------|
A--2/4----11-9----x/x------77/55/44/22----------|
E-----------------7/5---------------------------|

This guitar part is for the little piano in the background of the intro, and plays 
most of the song.

e-----------------------------------|
B-----------------------------------|
G--2-2-2-2---------4-4-4-4----------|
D--2-2-2-2-4-4-4-4-4-4-4-4-2-2-2-2--|
A--0-0-0-0-4-4-4-4-2-2-2-2-2-2-2-2--|
E----------2-2-2-2---------0-0-0-0--|


" And we're as lonely.."

e--2---------|
B--2-----3---|
G--2-----2---|
D--4-----0---|
A--4-----0---|
E--2---------|


" Im just you..your just me..."

e--0--
B--0--
G--1--
D--2--
A--2--
E--0--

"Its only true..."

e--2-----|
B--2--3--|
G--4--2--|
D--4--0--|
A--4--0--|
E--2-----|


Bridge:

" I see so many..."

e--0----0----------|
B--0----0-3333-----|
G--6----2-2222-----|
D--6----2-2222-----|
A--4----0-0000-----|
E------------------|


"Oh ..on our own..."

e----------|
B----------|
G----------|
D--2--4----|
A--2--4----|
E--0--2----|

"But if nobody.."

e-----------------------|
B-----------------------|
G--444444444--99999999--|
D--444444444--99999999--|
A--222222222--77777777--|
E-----------------------|