Jack Johnson - Rainbow Text Guitar Tab

Learn song with the online tabulature player
"Rainbow" intro by G love and Jack Johnson from the album "Thicker than water".


Tuning: standard E A D G B E

e|---------------------------------------------------------------------------|
B|----------------------13--13--------------14b13--13------------------------|
G|---/12-12-----12--14--------------12--14-------------14--12----------------|
D|---/12------------------------------------------------------14--12---------|
A|-------------------------------------------------------------------14-13-12|
E|---------------------------------------------------------------------------|

e|---------------------------------------------------------------------------|
B|---------------------------------------------------------------------------|
G|---------------------------------------------------------------------------|
D|---------------------------------------------------------------------------|
A|-14b15r14------------------------------------------------------------------|
E|---------------------------------------------------------------------------|