Jack Off Jill - American Made Text Guitar Tab

Learn the song with the online tablature player
e--------------------------------------------------------
B--------------------------------------------------------
G--------------------------------------------------------
D--4---4--3-3---4--------------4---4--3-3---4------------
A--4------------4---4--3-3-----4------------4---4--3-3---
E--2------------2--------------2------------2------------
  Verse

e---------------------------------
B---------------------------------
G----------------------7--6-7-6---
D--4----7--6-6----4----7--6-7-6---
A--4----7--6-6----4----5--4-5-4---
E--2----5--4-4----2---------------  x2

Verse
cont.)

e--------------------------------------------------------------
B--------------------------------------------------------------
G--7-7-7---4-4-4-----5\4--4---5\4--4---5\4--4---5\4--4---4-4---
D--7-7-7---4-4-4-----5\4--4---5\4--4---5\4--4---5\4--4---4-4---
A--5-5-5---2-2-2-----3\2--2---3\2--2---3\2--2---3\2--2---2-2---
E--------------------------------------------------------------
  Chorus

e---------------------------------
B---------------------------------
G-----4^--2----4^-4--2------------
D--4-------------------4----2--4--
A--4------------------------------
E--2------------------------------
  Post-Chorus

e--------------------7^-7--5------19^--------
B-----------------------------7---------19---
G--4^------4^--------------------------------
D------4-------4-----------------------------
A--------------------------------------------
E--------------------------------------------
  "Momma's apple pie..."

e---------------------------------------------
B---------------------------------------------
G--5\4--4---5\4--4---5\4--4---5\4--4---4-4-4--
D--5\4--4---5\4--4---5\4--4---5\4--4---4-4-4--
A--3\2--2---3\2--2---3\2--2---3\2--2---2-2-2--
E---------------------------------------------
  Ending