Jack Off Jill - Angels Fuck Text Guitar Tab

Learn the song with the online tablature player
e------3-----3------3-----3------3-----3------3-----3---
B---6-----6------5-----5------4-----4------3-----3------
G-------------------------------------------------------
D-------------------------------------------------------
A-------------------------------------------------------
E-------------------------------------------------------
  Verse

e--3---8----7---6---
B--3---10---9---8---
G--4---10---9---8---
D--5---10---9---8---
A--5---8----7---6---
E--3----------------
  Chorus

e--3---6---3---6---
B--3---6---5---8---
G--4---7---5---8---
D--5---8---5---8---
A--5---8---3---6---
E--3---6-----------
  Outro