Jack Off Jill - Fear Of Dying Text Guitar Tab

Learn the song with the online tablature player
Verse
G---------------------------------------
D---------------------------------------
A---------------------------------------
E-0-0-0-0-0-2-2-2-2-3-3-3-3-5-5-5-8-7-6-

Chorus
G------------------------------------------
D------------------------------------------
A-0-0--0-2-3-3-3-2-----------------------2-
E------------------3-3-3-3-3-2-0-0-0-2-0---

G--------------------------
D--------------------------
A-6-5-5-5-6-5-6-5-5-5-6-5--
E--------------------------

Bridge
G-------------------------------------------
D-------------------------------------------
A-0-0-0-0-2-3-3-3-2-6-5-5-5-6-5-6-5-5-5-6-5-
E-------------------------------------------

There you go.