Jackie Moon - Love Me Sexy Text Guitar Tab

Learn song with the online tabulature player
LOVE ME SEXY - Jackie Moon

Tabbed By : Aaron
e-mail: a.kiddle@live.com.au

Tuning: E A D G

Everybody Love Everybody!

Intro:

-Only slide down at the start of the song.

G|------------------------------------------------|
D|------------------------------------------------|
A|----\555-----------------555--------------------|
E|------------------------------------------------|

G|------------------------------------------------|
D|------------------------------------------------|
A|-----333----------------------------------------|
E|-------------------------6---7~--8---9~---------|

Chorus:

G|------------------------------------------------|
D|------------------------------------------------|
A|----555-03-5/75-35~-----555-030-5/7-5530--------|
E|------------------------------------------------|

G|------------------------------------------------|
D|------------------------------------------------|
A|----333--1-3/53-13~-----------------------------|
E|--------3---------------6---7~--8---9~----------|

Verse:

G|------------------------------------------------|
D|------------------------------------------------|
A|----555-03-5/75-35~-----555-030-5/7~--5~--0-----|
E|------------------------------------------------|

G|------------------------------------------------|
D|------------------------------------------------|
A|----333--1-3/53-13~-----------------------------|
E|--------3---------------6---7~--8---9~----------|

Bridge:

-Only slide down from 9 the second time it's played.

G|------------------------------------------------|
D|------------------------------------------------|
A|----555-----------------555---------------------|
E|------------------------------------------------|

G|------------------------------------------------|
D|------------------------------------------------|
A|----333-----------------------------------------|
E|------------------------6---7~--8---9\----------|

Order:

Intro  x 2
Chorus x 2
Verse  x 2
Chorus x 2
Verse  x 2
Chorus x 2
Bridge x 2
Chorus x 4.....

Everybody Love Everybody!

| /  slide up
| \  slide down
| h  hammer-on
| p  pull-off
| ~  vibrato
| +  harmonic
| x  Mute note