Jackson 5 - Blame It On The Boogie Text Guitar Tab

Learn song with the online tabulature player
Jackson 5 - Blame It On The Boogie
Standard Tuning: EADG
Tabbey By: RTBM

This song has a basic bass line, and a bass line that fillsup some 
extra lines like pop's ,ect
the extra lines are too fast to play it correctly, so stick to
the basics when you're alone.

Intro 3x                   1x 
G|-----------------------|-------------------------|
D|-----------------------|-------------------------|
A|-66---33---------1-3-1-|-66---33----------(1)----|
E|----33--33-11-345------|----33--33-11-345--------|


Verse
G|---------------------------|--------------------------------------|
D|---------------------------|--------------------------------------|
A|-3-13--3--6-56-1-3-13---6--|-3-13-1346-6-4-4-3-3---------------1--|
E|------3-6------------34----|---------------------1-34-344-55-6----|


Chorus
G|--8-88-7--6-66---6-66-7-------9h11p9-|
D|--------------------------9-11-------|
A|/6----5--4----2-4----5--6------------|
E|-------------------------------------|



G|--8-88-7--6-66---8--66-7-------9h11p9-----|
D|---------------------------9-11------h11--|
A|-6----5--4----4/6-4---5--6----------------|
E|------------------------------------------|


Bridge
G|--------------|--88--55-------|-------55------|------10,11\------|
D|--------------|---------------|---------------|-------------1,1--|
A|-6--1-3---1,1-|-6---3-----1,1-|-6--1-3----1,1-|-6-3--------------|
E|-------34-----|--------34-----|---------4-----|------------------|

it's all here and this is the song structure:

intro    
verse    
chorus   
verse    
chorus   
bridge
chorus
intro
verse
chorus
=rest=
chorus till end