Jakob Dylan - War Is Kind Text Guitar Tab

Learn song with the online tabulature player
Sorry  this one is kinda hard to figure out, but listen to the song and remember Open D tuning!!!

Tabbed by vanfireman

Corrections/Comments welcome

vanfireman40@hotmail.com
-----
TUNING: D A D F# A D
CAPO II: All chords/tabs relative to capo

Verse:
D   |-------------------------------------------------------------------------------|
A   |--0------0-----0-----0----0------0----0-----0------0------0-------0------------|
F# |-0--0---0--0--0--0--0--0--0--0--0--0--0--0--0--0--0--0---0--0---0--0--8---------|
D  |--------------------------------------------------------------------------------|
A  |---------------------------------------------------------------------10---------|
D  |-5----7----0------5---4-----0----5----7-----0----5---7----------------9---------|

D  |-------------------------------|
A  |-------0-------0--------0------|
F# |-----0--0-----0--0-----0--0----|
D  |-------------------------------|
A  |-------------------------------|
D  |-----5------7--------0---------|


Pre Chorus/Chorus:
D   |---------------------------------------------------------------------------------|
A   |--0------0-----0-----0----0------0----0-----0------0------0-----0----------------|
F# |-0--0---0--0--0--0--0--0--0--0--0--0--0--0--0--0--0--0---0--0---0--0--------------|
D  |----------------------------------------------------------------------------------|
A  |-------------3-/----5-/-----------------------------------------------------------|
D  |--------2-/-------4-/---------5----------0--------3--------2------1---------------|


D   |-----------------------------------------------------------------------------|
A   |-------------------------0---------0-----------------------------------------|
F# |-----8-----------------0---0----0----0----------------------------------------|
D  |------------------------------------------------------------------------------|
A  |-----10-----------------------------------------------------------------------|
D  |-----9-------------7----------------------6~----------------------------------|