James Blunt - Annie Text Guitar Tab

Learn song with the online tabulature player
-------------------------------------------------------------------------------
                             Annie – James Blunt
-------------------------------------------------------------------------------

This is just the beginning of the song up until the chorus

(This is my first Tab so I hope it is okay any input is welcome)

Tabbed by: Sarah
Email: Flutterbyepower_14@hotmail.com

Tuning: Standard

Capo on first

e|------3---------4------0---------------3--------4-------0------------|
B|-------4---------------0-----2----------4---------------0-----2------|
G|------3--------------------------------3-----------------------------|
D|---3------3---------3-----3----3----3-----3---------3------3---3-----|
A|---3------3----3----3-----3-----4---3-----3----3----3------3----4----|
E|---0------0-----4---0-----0---------0-----0-----4---0------0---------|


e|------3---------4------0---------------3---------4-------0-------------|
B|-------4---------------0-----2----------4---------------0-----2--------|
G|------3--------------------------------3-------------------------------|
D|---3------3---------3-----3----3----3------3---------3------3---3------|
A|---3------3----3----3-----3-----4---3------3----3----3------3----4-----|
E|---0------0-----4---0-----0---------0------0-----4---0------0----------|


I hope you understand it :D