James Brown - Licking Stick Text Guitar Tab

Learn song with the online tabulature player
--------8-8--8-8--6-8-6----8-6------8-8-6-8----|
---5-8------------------8------8---------------|
-6---------------------------------6-----------|
-----------------------------------------------|

--------8-8--8-8--6-8-6----8-6------8-8-6-8----|
---5-8------------------8------8---------------|   Repeat through whole song
-6---------------------------------6-----------|
-----------------------------------------------|

--------8-8--8-8--6-8-6----8-6------8-8-6-8----|
---5-8------------------8------8---------------|
-6---------------------------------6-----------|
-----------------------------------------------|