James Carrington - Ache Text Guitar Tab

Learn song with the online tabulature player
The great song "Ache" by the grest singer James Carrington
Tabbed by Alon Noy
Truely A beautiful song

Capo on 4th string

h= Hammer on
p= Pull off

Intro: (0:00-0:21)
|---------------------------------------------------------------------------|
|----------------------------------------------------------------------3----|
|----0------------0---------0----------0----------0---------0-0-0-0h2-2-2-0-|
|----0-0h2p0------0---------0----------0------0h2-0-0h2p0---0-0-0-0-0-0-----|
|--3-------------------------------0h2---0h2-------------------------------3|
|-------------0h3---0h3-0h2---0h2------------------------0h3----------------|

Verse 1: (0:21-0:59)

|--------------------------------------------------------------------2-2-2h3|
|--------------------------------------------------------------------3-3-3--|
|----0------------0---------0----------0----------0---------0-0-0-0h2-------|
|----0-0h2p0------0---------0----------0------0h2-0-0h2p0---0-0-0-0-0-------|
|--3-------------------------------0h2---0h2--------------------------------|
|-------------0h3---0h3-0h2---0h2------------------------0h3----------------|

|---------------------------------------------------------------------|
|---------------------------------------------------------------------|
|----0------------0---------0----------0----------0---------0-0-0-0h2-|
|----0-0h2p0------0---------0----------0------0h2-0-0h2p0---0-0-0-0-0-|
|--3-------------------------------0h2---0h2--------------------------|
|-------------0h3---0h3-0h2---0h2------------------------0h3----------|

Pre Chorus 1: (1:00-1:18) Strum with the rhythm

   Am	Em     a     G       Am	    Em		 D     b     D
  
|--0-----0-----3-----3-------0-------0-----------2-----3-----2-|
|--1-----0-----3-----3-------1-------0-----------3-----3-----3-|
|--2-----0-----0-----0-------2-------0-----------2-----2-----2-|
|--2-----2-----2-----0-------2-------2-----------0-----0-----0-|
|--x-----2-----3-----2-------x-------2-----------x-----x-----x-|
|--x-----x-----x-----3-------x-------x-----------x-----x-----x-|

Chorus (1:19-1:58)
     
     C	   G     D    Am     C	   G     D	 b     D

|----0-----3-----2-----0-----0-----3-----2-------3-----2---|
|----1-----3-----3-----1-----1-----3-----3-------3-----3---|
|----0-----0-----2-----2-----0-----0-----2-------2-----2---|
|----2-----0-----0-----2-----2-----0-----0-------0-----0---| X2
|----3-----2-----x-----x-----3-----2-----x-------x-----x---|
|----x-----3-----x-----x-----x-----3-----x-------x-----x---|

Bridge (1:59-2:20) The same as the intro only there is a piano involved :)

Verse 2 is the same as Verse 1 (2:21-3:01).

Pre Chorus 2 (3:02-3:39)

   Am	Em     a     G       Am	    Em		 D     b     D
  
|--0-----0-----3-----3-------0-------0-----------2-----3-----2-|
|--1-----0-----3-----3-------1-------0-----------3-----3-----3-|
|--2-----0-----0-----0-------2-------0-----------2-----2-----2-|
|--2-----2-----2-----0-------2-------2-----------0-----0-----0-|
|--x-----2-----3-----2-------x-------2-----------x-----x-----x-|
|--x-----x-----x-----3-------x-------x-----------x-----x-----x-|

Chorus again (3:40-4:21)

Outro is the same is intro (4:22-5:07)