James Ingram - Just Once Text Guitar Tab

Learn the song with the online tablature player
I think it sounds like this....'m not sure about this one...
just express your feelings in your guitar...

Intro

g---------------------------------------------------------------|
d---------3--2-----3----5---------------------------------------|
a---3-----------------------------------------------------------|
e---------------------------------------------------------------|

Verse
g------------------------------------------------------------------------|
d------------------------------------------------------------------------|
a----3/8--7------5--7---7---------5---7-----5------/7------5--7--8----10-|
e------------5---------------5-----------5----3--------5-----------------|

Chorus
coming from G(10th) make a slide....
g------------------------------------------------------------------|
d------------------------------------------------------------------|
a---3/-----3-----3-----3------3/8---7----------8-----5-------------|
e---------------------------------------5---------5---3------------|

g----------------------------------------------------------------|
d----------------------------------------------------------------|
a---3-----3-----3-----3------3/8---7----------8-----5------------|
e---------------------------------------5---------5---3----------|

Bridge

g-----------------------------------------------------------------|
d-----------------------------------------------------------------|
a---------------1-----6-------------------4---6----7----6----4----|
e---4------1---------------4--/--7-----4--------------------------|

g--------------------------------------------------------------------|
d--------------------------------------------------------------------|
a---6----7-----------------------------------------------------------|
e-------------5------------------------------------------------------|

the chorus just move to one whole note...