James Reyne - Fall Of Rome Text Guitar Tab

Learn song with the online tabulature player
Verse

G|-------------------------------------------|
D|-------------------------------------------|
A|-------------------------------------------|
E|--7-7-7-7-7-7-7-5-5-5-5-5-5-5-5-7-7-7-7-7--|etc.

Chorus

G|-------------------------------------------|
D|-------------------------------------------|
A|------------5------------------------------|
E|-0~~~~~--5----7-7-7-7-7-7-7----------------|continue until verse

Verse-


Solo

G|-----------------------------------------------------|
D|-----------------------------------------------------|
A|-----------------------------------------------------|
E|--2-2-2-2-2-2-2-2-2-2-2-2-2-4-4-4-4-4-4-0-0-0-0-0-0-0| 

chorus-

solo-

outro

G|-------------------------------------------|
D|-------------------------------------------|
A|--5-5-5-5-5-5-5-5-5------------------------|
E|---------------------7~~~~~~~--------------|


Thats pretty much it, i might've missed something but thats what i picked up.
Its also a pretty good song too.