James Taylor - Never Die Young Text Guitar Tab

Learn song with the online tabulature player
James Taylor
Never Die Young


E]-----0---2---4---------------------------0---------------0---------|
B]-0--------------0---2---4-------2---4---------------2--------------|
G]-----------------------------1---------------1---2-----------1-----|
D]-----------------------------------------------------------------4-|
A]-------------------------------------------------------------------|
E]-------------------------------------------------------------------|

E]-----0---2---4---------------------------0---------------0-----------0-|
B]-0---------------0---2---4-------2---4---------------2-----------2-----|
G]-----------------------------1---------------1---2-----------1---------|
D]-----------------------------------------------------------------------|
A]-----------------------------------------------------------------------|
E]-----------------------------------------------------------------------|



E]-----|*------------------------------7--*|
B]-----|*------------------------------5--*|
G]--4--|*--6---4--------------------------*| 
D]-----|*----------7---6---4-------4------*|  5x
A]-----|*----------------------7----------*|
E]-----|*---------------------------------*|


From: Ben