Jamie Cullum - Gran Torino Text Guitar Tab

Learn song with the online tabulature player
Alright, pretty sure i got it. If not, this is the right stucture, maybe wrong key. But 
here it is.

Vocal Line
e---------------8-7-5------------7-5-3-----------------------|
b-10-10-10-8-10--------8-8-8-6-8---------6-6-5-3---3---------|
g------------------------------------------------5-----------|
d------------------------------------------------------------|
a------------------------------------------------------------|
E------------------------------------------------------------|

Piano Intro
e-----5------5---------6------6---------3--5-6-6p5p3-------5-|
b-5h7----5h7---(5)-7h9----7h9---(7)-4h5--------------5-5h7---|
g------------------------------------------------------------|
d------------------------------------------------------------|
a------------------------------------------------------------|
E------------------------------------------------------------|

Beautiful song, enjoy