Jamie T - Calm Down Dearest Text Guitar Tab

Learn song with the online tabulature player
The acoustic bass version he plays live, pretty straight4ward

G--7----7--7-|
D------------|
A--5----5--5-|   Chorus, but he starts wid it on da live version
E-------7--5-|

G-7-12-11-9-11-9-11-9-7-|
D-----------------------| Breakdown part
A-5-10-9--7-9--7-9--7-5-|
E-----------------------|

G------------------|
D------------------| Verse start, same as breakdown but just single notes
A-5-10-9-7-9-9-7-5-|
E------------------|

Think this is it, it is how he played it on the BBC Electric proms, fuckin top song, Pls 
tell me what ya think