Jamie T - If You Got The Money Text Guitar Tab

Learn song with the online tabulature player
if you got the moeny - jamie t

tradtionally played on acoustic bass but the more popular one is on a tele:

if you got the money...
e(x)-----------------------------------------------------------------------|
B(x)-----------------------------------------------------------------------|
G----------------------6--6--6--6--7--7--7--7--11--11--11--11--9--9--9--9--|
D----------------------7--7--7--7--9--9--9--9--12--12--12--12--11-11-11-11-|
A(x)-----------------------------------------------------------------------|
E(x)-----------------------------------------------------------------------|

can be played:

if you got the money...
e----------------------0--0--0--0--0--0--0--0--0---0---0---0---0--0--0--0--|
B----------------------0--0--0--0--0--0--0--0--0---0---0---0---0--0--0--0--|
G----------------------6--6--6--6--7--7--7--7--11--11--11--11--9--9--9--9--|
D----------------------7--7--7--7--9--9--9--9--12--12--12--12--11-11-11-11-|
A--------------------------------------------------------------------------|
E--------------------------------------------------------------------------|

play with the syncopation (rhythm) of the chords to give a choppy sound, bridge pickup, 
with a little reverb