Jamie T - If Youve Got The Money Text Guitar Tab

Learn song with the online tabulature player
---------------------------------------------------------------------
		If you’ve got the money - Jamie T
---------------------------------------------------------------------

Tabbed By : El Jimbo

Tuning: Standard

G|-6-----7----11---9-----------------------------------------------|
D|-7-----9----12--11-----------------------------------------------|
A|-----------------------------------------------------------------|
E|-----------------------------------------------------------------|

G|----6------------7----------11------------9----------------------|
D|-7-----x8-----9----x8---12-----x8-----11----x8-------------------|
A|-----------------------------------------------------------------|
E|-----------------------------------------------------------------|


They are pretty much all you need for the song its pretty easy to see where it all fits in…



| /  slide up
| \  slide down
| h  hammer-on
| p  pull-off
| ~  vibrato
| +  harmonic
| x  Mute note
===============================================================================