Jamiroquai - Emergency On Planet Earth Text Bass Tab

Learn the song with the online tablature player
Slapbass the whole Song
Intro,verse4x,chorus1x,verse4x,chorus3x,verse4x,chorus2x,verse4x

Intro

G|-----------|
D|-----------|
A|-----------|
E|-2/3-2/3---|

Verse

G|---------8----5-7--8----|
D|---5-3------------------|
A|-------/6-55-3-5-/6-----|
E|-3--1---------------44--|

Chorus

G|------3-5-5-5--7-8---6-6-6------3-5-5-5--7-8---6---8--|
D|--5-7--------------6--------5-7--------------6---8----|
A|-----1-3-3-3--5-6---4-4-4------1-3-3-3--5-6---4---6---|
E|-3-5--------------4--------3-5--------------4---6-----|