Jamiroquai - Feels Just Like It Should Text Guitar Tab

Learn the song with the online tablature player
FEELS JUST LIKE YOU SHOULD - Jamiroquai

(Just before drums...)
G|---------------------------------------------------------------------------|
D|------7--5-5---------------------------------------------------------------|
A|-------------5-5-----------------------------------------------------------|
E|--0-0------------0---------------------------------------------------------|

(repeat a lot of times)
G|---------------------------------------------------------------------------|
D|-----------------7--5-5----------------------------------------------------|
A|----------5-------------5-5------------------------------------------------|
E|--8-8-8-8----0-0------------0----------------------------------------------|

you can make some variations between bass silences...

| /  slide up
| \  slide down
| h  hammer-on
| p  pull-off
| ~  vibrato
| +  harmonic
| x  Mute note