Jamiroquai - Virtual Insanity Text Guitar Tab

Learn song with the online tabulature player
okey the other one for this really sucks,
and its a great song to play on the guitar,
really worth knowing, and i can only find
strange chord ones one the internet, so..

--6---6--------4---4----4---4-----------|
--6---6--------4---4----4---4-----------|
--6---6--------4---4----4---4-----------|
----------------------------------------|
--------------------------4-------------|
----6------------4----------------------|


----------------------------------------|
--2----2----------4----4-----4----4-----|
--3----3----------3----3-----3----3-----|
--3----3----------4----4-----4----4-----|
---------------------3----------2-------|
----2-----------------------------------|


----------------------------------------|
----------------------------------------|
----------------------------------------|
----------------------------------------|
--1/4--5--------------------------------|
----------------------------------------|

and there you go, thats all i know but
its pretty funky, you have to admit.
there is more, but its scribbled down
somewhere... ill try and find it and
put it up :-D theodora