Jamiroquai - You Give Me Something Text Guitar Tab

Learn the song with the online tablature player
Jamiroquai
You Give Me Something

Hey!
I love Jamiroquai, and I love this song as well
It's not hard to play the notes, but it's all about rhythm!
I tabbed it as two separate guitars but it can be easily played
with only one. Use a lot of wah-wah! =)

Guitar 1
E------------------------------------------------------------------------------
B--x-10-10-12--12---x-x---x--x-------------------------------------------------
G--x--x--x--x---x---9-9--11-11-------------------------------------------------
D------------------------------------------------------------------------------
A------------------------------------------------------------------------------
E------------------------------------------------------------------------------

E------------------------------------------------------------------------------
B--x--10-10--10-10--12-12------------------------------------------------------
G--9---x--x---x--x---x--x------------------------------------------------------
D------------------------------------------------------------------------------
A------------------------------------------------------------------------------
E------------------------------------------------------------------------------

Guitar 2
E------------------------------------------------------------------------------
B------------------------------------------------------------------------------
G------------------------------------------------------------------------------
D--x-7-7-9--9---x-x-x-x--------------------------------------------------------
A--x-x-x-x--x---7-7-9-9--------------------------------------------------------
E------------------------------------------------------------------------------

E------------------------------------------------------------------------------
B------------------------------------------------------------------------------
G------------------------------------------------------------------------------
D--x-7-7--7-7--9-9-------------------------------------------------------------
A--7-x-x--x-x--x-x-------------------------------------------------------------
E------------------------------------------------------------------------------