Jan Delay - Oh Jonny Text Guitar Tab

Learn song with the online tabulature player
Song:   Oh Jonny
Artist: Jan Delay
Album:  Wir Kinder von Bahnhof Soul

please rate ;)

intro
G|----|----|----|----|----|----|----|----|
D|----|----|----|----|----|----|----|----|   
A|----|----|----|----|2222|2222|5555|5555|
E|0000|0000|4444|4444|----|----|----|----|

Verse 
G|----|----|----|----|
D|----|----|----|----|
A|0---|0---|0---|----|
E|----|----|----|1-30|

G|----|----|----|----|
D|----|----|----|----|
A|-0--|-0--|----|----|
E|3---|3---|1-30|----|

Refrain intro
E|----|
D|----|
A|----|
E|1-3-|

Refrain
G|------|-------|-----|----|----|----|
D|------|033-333|3----|----|----|----|
A|00-000|-------|-5555|5555|3333|3333|
E|------|-------|-----|----|----|----|

Refrain outro
G|----|----|------|----|----|------|
D|----|----|320---|----|----|------|
A|2~~~|1~~~|---320|----|0---|320--0|
E|----|----|------|----|----|---32-|



next part
choose:
G|----|----|----|
D|----|1~~~|----|
A|4~~~|----|1~~~|
E|----|----|----|

or
G|----|--1----|----|--3---|----|
D|----|23--32-|1~~~|45-541|----|
A|4~~~|------4|----|------|1~~~|
E|----|-------|----|------|----|


Tabbed by Daniel Welzbacher