Janis Ian - At Seventeen Text Guitar Tab

Learn the song with the online tablature player
At Seventeen by Janis Ian

Where possible, play the notes shown while holding the full chord

4 bar intro/filler

 C               Cmaj7            Dm7             G7
|--------3-----------3---0-------|--------3---1-------------------|
|1-----------1---0-----------0---|----1-----------------------0---|
|0---------------0---------------|2-----------------------0-------|
|2---------------2---------------|--------------------3-----------|
|3---------------3---------------|--------------------------------|
|--------------------------------|----------------3---------------|

 C               Cmaj7            Dm7             G7
|--------3-----------3---0-------|--------3---1-------------------|
|1-----------1---0-----------0---|----1---------------------------|
|0---------------0---------------|2-----------------------0---0---|
|2---------------2---------------|--------------------3-----------|
|3---------------3---------------|--------------------------------|
|--------------------------------|----------------3---------------|

Verse

 Csus2           C                Cmaj7           C
|--------------------------------|--------------------------------|
|3-------3-------1-------1-------|0-------0-------1---------------|
|0---------------0---------------|0---------------0-------0-------|
|2---------------2---------------|2---------------2---------------|
|3---------------3---------------|3---------------3---------------|
|--------------------------------|--------------------------------|

   FM7+6                          Faug            FM7+6
|0-------0-----------------------|--------------------------------|
|3---------------3-------3-------|2-------2-------3---------------|
|2---------------2-------2-------|2---------------2-------2-------|
|3---------------3-------3-------|3---------------3---------------|
|--------------------------------|--------------------------------|
|--------------------------------|--------------------------------|

 G13             G7               G7sus4          G7
|--------------------------------|--------------------------------|
|5-------5-------3-------3-------|--------------------------------|
|4---------------4---------------|5-------5-------4-------0-------|
|3---------------3---------------|3---------------3---------------|
|5---------------5---------------|5---------------5---------------|
|3---------------3---------------|----------------3---------------|

 Csus2           C                Cmaj7
|--------------------------------|--------------------------------|
|3-------1-------1-------0-------|0-------1-------1---------------|
|0---------------0---------------|0---------------0-------0-------|
|2---------------2---------------|2---------------2---------------|
|3---------------3---------------|3---------------3---------------|
|--------------------------------|--------------------------------|

 Csus2           C                Cmaj7           C
|--------------------------------|--------------------------------|
|3-------3-------1-------1-------|0-------0-------1---------------|
|0---------------0---------------|0---------------0-------0-------|
|2---------------2---------------|2---------------2---------------|
|3---------------3---------------|3---------------3---------------|
|--------------------------------|--------------------------------|

   FM7+6                          Faug            FM7+6
|0-------0-----------------------|--------------------------------|
|3---------------3-------3-------|2-------2-------3---------------|
|2---------------2-------2-------|2---------------2-------2-------|
|3---------------3-------3-------|3---------------3---------------|
|--------------------------------|--------------------------------|
|--------------------------------|--------------------------------|

 G13             G7               G7sus4          G7
|--------------------------------|--------------------------------|
|5-------5-------3-------3-------|--------------------------------|
|4---------------4---------------|5-------5-------4-------0-------|
|3---------------3---------------|3---------------3---------------|
|5---------------5---------------|5---------------5---------------|
|3---------------3---------------|----------------3---------------|

 Csus2           C                Cmaj7           C
|--------------------------------|--------------------------------|
|3-------1-------1-------0-------|0-------0-------1-------1-------|
|0---------------0---------------|0---------------0---------------|
|2---------------2---------------|2---------------2---------------|
|3---------------3---------------|3---------------3---------------|
|--------------------------------|--------------------------------|

Chorus

   Eb                               Ab
|3-------3-------3---------------|4-------3-----------------------|
|4---------------4-------4-------|4---------------6-------4-------|
|3---------------3---------------|5-------------------------------|
|5---------------5---------------|6-------------------------------|
|6---------------6---------------|--------------------------------|
|3---------------3---------------|--------------------------------|

   Dm7                              G
|1-------1-------1---------------|3-------1-----------------------|
|3---------------3-------3-------|3---------------4-------3-------|
|2---------------2---------------|4-------------------------------|
|0---------------0---------------|5-------------------------------|
|--------------------------------|--------------------------------|
|--------------------------------|--------------------------------|

 Cm7                              Fm7
|--------------------------------|--------------------------------|
|4-------4-------4-------3-------|4-------4-------4-------3-------|
|3---------------3---------------|5---------------5---------------|
|5---------------5---------------|3---------------3---------------|
|3---------------3---------------|--------------------------------|
|--------------------------------|--------------------------------|

 Cm7                              Fm7
|--------------------------------|--------------------------------|
|4-------4-------4-------3-------|4-------4-------4-------3-------|
|3---------------3---------------|5---------------5---------------|
|5---------------5---------------|3---------------3---------------|
|3---------------3---------------|--------------------------------|
|--------------------------------|--------------------------------|

   Abmaj9                           G7
|3-------4-------1---------------|1-------3-----------------------|
|1-----------------------4-------|0---------------4-------3-------|
|1-------------------------------|0-------------------------------|
|1-------------------------------|0-------------------------------|
|1-------------------------------|--------------------------------|
|--------------------------------|--------------------------------|

 Cm7                              Fm7
|--------------------------------|--------------------------------|
|4-------4-------4-------3-------|4-------4-------4-------1-------|
|3---------------3---------------|5---------------5---------------|
|5---------------5---------------|3---------------3---------------|
|3---------------3---------------|--------------------------------|
|--------------------------------|--------------------------------|

 Dm7                              Dm7
|--------------------------------|--------------------------------|
|1-------3-------3-------1-------|3-------1-------1-------3-------|
|2---------------2---------------|2---------------2---------------|
|0---------------0---------------|0---------------0---------------|
|--------------------------------|--------------------------------|
|--------------------------------|--------------------------------|

   G
|3-------------------------------|   Back to verse
|3-------------------------------|
|4-----------------------0-------|
|3-------------------------------|
|5-------------------------------|
|3-------------------------------|