Janis Joplin - Call On Me Text Guitar Tab

Learn song with the online tabulature player
G|-----------------13------11------9-----11---------------|
D|--------------11----11-9----9--7---7-9----9-7-77-7------|
A|-----6-7-77-7--------------------------------------7-7--|
E|-7-9--------------------------------------------------7-|

"a man and a woman..."

G|-----------------------|
D|11-9-7-77-7------------|
A|------------7-7--------|
E|----------------7------|

"I need you darling..."

G|------------------13------11-----9-----11------------------|
D|-11-9-7-77-7---11----11-9----9-7---7-9----9-7-77-7---------|
A|-------------7------------------------------------7-7------|
E|------------------------------------------------------7----|

Ending
G|------13------11-----9-----11----------|
D|---11----11-9----9-7---7-9----9--------|
A|---------------------------------7-----|
E|---------------------------------------|