Janno Gibbs - Fallin Text Guitar Tab

Learn song with the online tabulature player
Fallin Chords and tab by Jason Abellar


title: Fallin'
artist: Janno Gibbs

Tab by: Jason Abellar

capo on 1st Fret

I dedicate this song to Mary Joy Asentista!

Intro G,C9


E-----------------------------------|
B---------0----3-------------0----3-|
G-------O----0-------------0----0---| (2X)
D-----0----0-------------2----2-----|
A----------------------3------------|
E--3--------------------------------|

VERSE:1 

   G                  C9              Am7      A?           D
E-----------------------------------|---------------------------------------|
B---------0----3-------------0----3-|--------1-------3------------0-----3---|
G-------O----0-------------0----0---|------0-------0------------2-----2-----|
D-----0----0-------------2----2-----|----2-------2------------0-----0-------|
A----------------------3------------|--0-------0------------0---------------|
E--3--------------------------------|---------------------------------------|

   G                  C9              Am7      A?           D
E-----------------------------------|---------------------------------------|
B---------0----3-------------0----3-|--------1-------3------------3---------|
G-------O----0-------------0----0---|------0-------0------------2---2-------|
D-----0----0-------------2----2-----|----2-------2------------0-------------|
A----------------------3------------|--0-------0------------0---------------|
E--3--------------------------------|---------------------------------------|

REFRAIN:

  B7                Em                D/F#                 G
E--------2--------------------------|-------------------------------------|
B-------------------------0------0--|-------2----------------------3------|
G-----2-----------------0------0----|-----3----------------------0--------|
D---1-----------------2------0------|---0----------------------0----------|
A-2-----------------2---------------|-0----------------------2------------|
E-----------------------------------|----------------------3--------------|

  Am7             Am7/G                  D
E-------------------------------------|----------------------2--------------|
B---------4---------------1-----------|--------3----3----3---3--------------|
G--------4---------------0------------|------2----2----2-----2--------------|
D------2---------------2--------------|----0--------------------------------|
A----2---------------0----------------|--0----------------------------------|
E--2--------------0-------------------|-------------------------------------|

CHORUS:

   G              G/E                  C          D
E-----------------------------------|-------------------------------------|
B---------3--------------3----------|------1------3-----------------------|
G---------0--------------0----------|------0------2-----------------------|
D-----------------------------------|-------------------------------------|
A------------------2----------------|--3----------------------------------|
E--3--------------------------------|-------------------------------------|

   G              G/E                  C          
E-----------------------------------|-------------------------------------|
B---------3--------------3----------|------1------------1-----------------|
G---------0--------------0----------|------0------------0-----------------|
D-----------------------------------|-------------------------------------|
A------------------2----------------|--3----------------0-----------------|
E--3--------------------------------|-------------------------------------|


  Am7                    Dsus
E-----------------------------------------|
B-------1-------1--------------3-----3----|
G-----0-------0--------------2-----2------|
D---2-------2--------------0-----0--------|
A-0----------------------0----------------|
E-----------------------------------------|


 
   G                           C9
E---------------------------|-------------------------|
B--------3------3-----------|--------3------3---------|
G------0------0-------0-----|------0------0------0----|
D----0------0-------0-------|----2------2------2------|
A---------------------------|--3-------------3--------|
E--3-------------3----------|-------------------------|

Tapos ulit ka ulit sa umpisa sa Verse 1 ganon din ang plucking nya sa verse 2 im sure!

nandito din ung chords para masundan nyo ng tama ang kanta pero hindi ako sure sa chorus kung tama 
ung plucking ko pero tama ung verse1 ko! im sure 100% sana magustohan nyo po 



Verse I
          G
a little conversation
               C9
turning into little sweet sensations
           Am7            A?             D
and their only getting sweeter everytime
            G
a friendly get together
              C9
turning into visions of forever
           Am7              A?            D
if i just believe this foolish heart of mine


Refrain
B7            Em      D/F#          G
 i cant pretend that im just a friend
           Am7          Am7/G             D
and im thingking maybe we were meant to be 


Chorus
               G    G/E       C         D
i think i fallin fallin in love with you
     G      G/E         C         
and i dont i dont know what to do
    Am7                              Dsus
im afraid youll turn away but ill say it anyway
                G           C9
i think im fallin... for you
         G           C9
im fallin...   for you

Verse II (SAME AS VERSE 1)
whenever were together
im wishing that goodbye's would turn to never
cause with you is where i always wanna be
whenever im beside all i really want to do is hold you
no one else but you has meant this much to me

Refrain

Chorus 2x

im fallin for you

Paki rate na lng poh