Janus - Stains Text Guitar Tab

Learn the song with the online tablature player
                                  "Stains" - Janus

KEY:
| /   slide up
| \   slide down
| x   Mute note
| b   Bend

Intro
Chorus Riff):
D|------------------------------------------------|
A|------------------------------------------------|
F|------------------------------------------------|
C|-5-5-55-5-5\1-1-11-1-1/8-8-88-8-8-88-8/10-10-10-|
G|-5-5-55-5-5\1-1-11-1-1/8-8-88-8-8-88-8/10-10-10-|
C|-5-5-55-5-5\1-1-11-1-1/8-8-88-8-8-88-8/10-10-10-|

D|---------------------------------------------|
A|---------------------------------------------|
F|---------------------------------------------|
C|-5-5-55-5-5\1-1-11-1-1/3-3-33-3-3-3-3-33-3-3-|
G|-5-5-55-5-5\1-1-11-1-1/3-3-33-3-3-3-3-33-3-3-|
C|-5-5-55-5-5\1-1-11-1-1/3-3-33-3-3-3-3-33-3-3-|

Pre-Verse:
D|----------------|
A|-1---1---1---1--|
F|-1---1---1---1--|
C|-0---0---0---0--|
G|-0---0---0---0--|
C|-0---0---0---0--|

Verse 1
D|-------------------------------------|
A|-------------------------------------|
F|--No Guitar For First Half of Verse--|
C|-------------------------------------|
G|-------------------------------------|
C|-------------------------------------|

D|-------------------------------------|
A|-------------------------------------|
F|-----------Tremolo Picking-----------|
C|-------------------------------------|
G|-------------------------------------|
C|-5(x16)-8(x16)-10(x16)-13(x8)-12(x8)-|
   x      x      x       x      x

D|-------------------------------------|
A|-------------------------------------|
F|-------------------------------------|
C|-------------------------------------|
G|-------------------------------------|
C|-5(x16)-8(x16)-10(x16)-13(x8)-12(x8)-|
   x      x      x       ^ Slowly start to let go of palm mute.

Chorus 1
D|------------------------------------------------|
A|------------------------------------------------|
F|------------------------------------------------|
C|-5-5-55-5-5\1-1-11-1-1/8-8-88-8-8-88-8/10-10-10-|
G|-5-5-55-5-5\1-1-11-1-1/8-8-88-8-8-88-8/10-10-10-|
C|-5-5-55-5-5\1-1-11-1-1/8-8-88-8-8-88-8/10-10-10-|

D|---------------------------------------------|
A|---------------------------------------------|
F|---------------------------------------------|
C|-5-5-55-5-5\1-1-11-1-1/3-3-33-3-3-3-3-33-3-3-|
G|-5-5-55-5-5\1-1-11-1-1/3-3-33-3-3-3-3-33-3-3-|
C|-5-5-55-5-5\1-1-11-1-1/3-3-33-3-3-3-3-33-3-3-|

D|------------------------------------------------|
A|------------------------------------------------|
F|------------------------------------------------|
C|-5-5-55-5-5\1-1-11-1-1/8-8-88-8-8-88-8/10-10-10-|
G|-5-5-55-5-5\1-1-11-1-1/8-8-88-8-8-88-8/10-10-10-|
C|-5-5-55-5-5\1-1-11-1-1/8-8-88-8-8-88-8/10-10-10-|

D|---------------------------------------------|
A|---------------------------------------------|
F|---------------------------------------------|
C|-5-5-55-5-5\1-1-11-1-1/3-3-33-3-3-3-3-33-3-3-|
G|-5-5-55-5-5\1-1-11-1-1/3-3-33-3-3-3-3-33-3-3-|
C|-5-5-55-5-5\1-1-11-1-1/3-3-33-3-3-3-3-33-3-3-|

Interlude
D|--------| |------------------------|
A|--------| |------------------------|
F|--------| |------------------------|
C|-00--00-| |-00--00-----------------|
G|-00--00-| |-00--00--0103-0103-0131-|
C|-00--00-| |-00--00--0103-0103-0131-|

D|--------------------| |------------------------|
A|--------------------| |------------------------|
F|--------------------| |------------------------|
C|-00--00-------------| |-00--00-----------------|
G|-00--00--0-0-00-0-0-| |-00--00--0103-0103-0131-|
C|-00--00--0-0-00-0-0-| |-00--00--0103-0103-0131-|
           x x xx x x

Verse 2
Same as V1):
D|-------------------------------------|
A|-------------------------------------|
F|--No Guitar For First Half of Verse--|
C|-------------------------------------|
G|-------------------------------------|
C|-------------------------------------|

D|-------------------------------------|
A|-------------------------------------|
F|-------------------------------------|
C|-------------------------------------|
G|-------------------------------------|
C|-5(x16)-8(x16)-10(x16)-13(x8)-12(x8)-|
   x      x      x       x      x

D|-------------------------------------|
A|-------------------------------------|
F|-------------------------------------|
C|-------------------------------------|
G|-------------------------------------|
C|-5(x16)-8(x16)-10(x16)-13(x8)-12(x8)-|
   x      x      x       x

Chorus 2
D|------------------------------------------------|
A|------------------------------------------------|
F|------------------------------------------------|
C|-5-5-55-5-5\1-1-11-1-1/8-8-88-8-8-88-8/10-10-10-|
G|-5-5-55-5-5\1-1-11-1-1/8-8-88-8-8-88-8/10-10-10-|
C|-5-5-55-5-5\1-1-11-1-1/8-8-88-8-8-88-8/10-10-10-|

D|---------------------------------------------|
A|---------------------------------------------|
F|---------------------------------------------|
C|-5-5-55-5-5\1-1-11-1-1/3-3-33-3-3-3-3-33-3-3-|
G|-5-5-55-5-5\1-1-11-1-1/3-3-33-3-3-3-3-33-3-3-|
C|-5-5-55-5-5\1-1-11-1-1/3-3-33-3-3-3-3-33-3-3-|

D|------------------------------------------------|
A|------------------------------------------------|
F|------------------------------------------------|
C|-5-5-55-5-5\1-1-11-1-1/8-8-88-8-8-88-8/10-10-10-|
G|-5-5-55-5-5\1-1-11-1-1/8-8-88-8-8-88-8/10-10-10-|
C|-5-5-55-5-5\1-1-11-1-1/8-8-88-8-8-88-8/10-10-10-|

D|---------------------------------------------|
A|---------------------------------------------|
F|---------------------------------------------|
C|-5-5-55-5-5\1-1-11-1-1/3-3-33-3-3-3-3-33-3-3-|
G|-5-5-55-5-5\1-1-11-1-1/3-3-33-3-3-3-3-33-3-3-|
C|-5-5-55-5-5\1-1-11-1-1/3-3-33-3-3-3-3-33-3-3-|

Pre-Bridge:
D|----------------|
A|-1---1---1---1--|
F|-1---1---1---1--|
C|-0---0---0---0--|
G|-0---0---0---0--|
C|-0---0---0---0--|

Bridge
D|----------------------------------------------------|
A|----------------------------------------------------|
F|----------------------------------------------------|
C|----------------------------------------------------|
G|-1-0-1-3-0-1-1-0-1-3-0-1----1-0-3-0-1----1-0--00-00-|
C|-1-0-1---0-1---0-1---0-1----1-0---0-1----1-0--00-00-|
                                                xx xx
D|----------------------------------------------------|
A|----------------------------------------------------|
F|----------------------------------------------------|
C|----------------------------------------------------|
G|-1-0-1-3-0-1-1-0-1-3-0-1----1-0-3-0-1----1-0--00-00-|
C|-1-0-1---0-1---0-1---0-1----1-0---0-1----1-0--00-00-|
                                                xx xx
D|----------------------------------------------------|
A|----------------------------------------------------|
F|-------7--------------------------------------------|
C|-------6--------------------------------------------|
G|-1-0-0-5----1-0-1-3-0-1----1-0-3-0-1----1-0--00-00--|
C|-1-0-0------1-0-1---0-1----1-0---0-1----1-0--00-00--|
   x x x                                       xx xx
D|----------------------------------------------------|
A|----------------------------------------------------|
F|----------------------------------------------------|
C|----------------------------------------------------|
G|-1-0-1-3-0-1-1-0-1-3-0-1----1-0-3-0-1----1-0--00-00-|
C|-1-0-1---0-1---0-1---0-1----1-0---0-1----1-0--00-00-|
                                                xx xx
D|-------------------------------|
A|-------------------------------|
F|-------------------------------|
C|-------------------------------|
G|----------15----------------15-|
C|-13-12-13----12-13-13-12-13----|

Chorus 3
Different Progression):

D|---------------------------------------------------------------------------|
A|---------------------------------------------------------------------------|
F|---------------------------------------------------------------------------|
C|-1-1-11-1-1/5-5-55-5-5/8-8-88-8-8-88-8/10-10-10----------------------------|
G|-1-1-11-1-1/5-5-55-5-5/8-8-88-8-8-88-8/10-10-10----------------------------|
C|-1-1-11-1-1/5-5-55-5-5/8-8-88-8-8-88-8/10-10-10----------------------------|

D|---------------------------------------------------------------------------|
A|---------------------------------------------------------------------------|
F|---------------------------------------------------------------------------|
C|-1-1-11-1-1/5-5-55-5-5/3-3-33-3-3-3-3-33-3-3-------------------------------|
G|-1-1-11-1-1/5-5-55-5-5/3-3-33-3-3-3-3-33-3-3-------------------------------|
C|-1-1-11-1-1/5-5-55-5-5/3-3-33-3-3-3-3-33-3-3-------------------------------|

D|---------------------------------------------------------------------------|
A|---------------------------------------------------------------------------|
F|---------------------------------------------------------------------------|
C|-1-1-11-1-1/5-5-55-5-5/8-8-88-8-8-88-8/10-10-10----------------------------|
G|-1-1-11-1-1/5-5-55-5-5/8-8-88-8-8-88-8/10-10-10----------------------------|
C|-1-1-11-1-1/5-5-55-5-5/8-8-88-8-8-88-8/10-10-10----------------------------|

D|---------------------------------------------------------------------------|
A|---------------------------------------------------------------------------|
F|---------------------------------------------------------------------------|
C|-1-1-11-1-1/5-5-55-5-5/3-3-33-3-3-3-3-33-3-3-------------------------------|
G|-1-1-11-1-1/5-5-55-5-5/3-3-33-3-3-3-3-33-3-3-------------------------------|
C|-1-1-11-1-1/5-5-55-5-5/3-3-33-3-3-3-3-33-3-3-------------------------------|

Outro
D|-------------------|
A|-1---1---1---1---1-|
F|-1---1---1---1---1-|
C|-0---0---0---0---0-|
G|-0---0---0---0---0-|
C|-0---0---0---0---0-|