Japandroids - The House That Heaven Built Text Guitar Tab

Learn song with the online tabulature player
One of the best bands just to jam out to! Leave corrections in the comments if needed. 

Listen to song for timing

Intro/ Verse Riff (Repeat as much as needed)

e|-3-------3---|
b|-1-------1---|
g|-0-------0---|
d|-2-------3---|
a|-3-------3---|
E|-------------|

Pre-chorus (Oh oh oh oh oh oh oh oh) 

e|-3---3----3|
b|-1---1----1|
g|-0---0----0|
d|-2---3----2|
a|-0---3----3|
E|-----------|


Chorus: 

e|-3------3------3----3-|
b|-1------1------1----1-|
g|-0------0------0----0-|
d|-3------2------2----0-|
a|-3------3------0----x-|
E|--------------------3-|

Solo

Guitar 1 (Also comes in during final chorus)
(Part 1)
e|-----------------|
b|-1-1-0-0-1-1-0-0-|
g|-0-0-0-0-0-0-0-0-| (Repeat Until) 
d|-----------------|
a|-----------------|
E|-----------------|

(Part 2)
e|-----------------|
b|-5-5-3-3-5-5-3-3-|
g|-5-5-4-4-5-5-4-4-|
d|-----------------|
a|-----------------|
E|-----------------|

Guitar 2 (Same as Chorus until Part 2, which is the same shape just an octave up)
(Part 1)
e|-3------3------3----3-|
b|-1------1------1----1-|
g|-0------0------0----0-|
d|-3------2------2----0-|
a|-3------3------0----x-|
E|--------------------3-|

(Part 2)
e|-15------15------15----15-|
b|-13------13------13----13-|
g|-0-------0-------0-----0--|
d|-15------14------14----0--|
a|-15------15------0-----x--|
E|-----------------------15-|

Order:
Intro/Verse Riff
Pre-Chorus
Verse Riff
Pre-Chorus
Chorus
Verse
Pre-Chorus
Verse
Pre-Chorus
Chorus
Solo
Verse
Pre-Chorus
Verse
Pre-Chorus
Chorus
Chorus/Solo

P.S. I think this goes without saying, but it's much better loud! :)