Jars of Clay - Dead Man Carry Me Text Guitar Tab

Learn song with the online tabulature player
Artist: Jars of Clay
Song: Dead Man (Carry Me)
Album: Good Monsters


Intro
E-9--9--9-9---12--12--12-12-----4--4--4--4-|
B-9--9--9-9---12--12--12-12-----4--4--4--4-|
G-------------13--13--13-13----------------| 2x
D------------------------------------------|
A------------------------------------------|
E------------------------------------------|


Verse
E-9--9--9-9---12--12--12-12-----4--4--4--4-|
B-9--9--9-9---12--12--12-12-----4--4--4--4-|
G-------------13--13--13-13----------------| 4x
D------------------------------------------|
A------------------------------------------|
E------------------------------------------|


Chorus
E-----------------------------------------------------------------|
B-----------------------------------------------------------------|
G-------------------------------------------------4-4-4-4-4-4-4-4-| 
D-7-7-7-7-7-7-7-7-7-7-7-7-7-7-7-7-2-2-2-2-2-2-2-2-4-4-4-4-4-4-4-4-|
A-7-7-7-7-7-7-7-7-7-7-7-7-7-7-7-7-2-2-2-2-2-2-2-2-2-2-2-2-2-2-2-2-|
E-4/5-5-5-4/5-5-5-4/5-5-5-4/5-5-5-0-0-0-0-0-0-0-0-----------------|

E-----------------------------------------------------------------|
B-----------------------------------------------------------------|
G-6-6-6-6-6-6-6-6---------------------------------4-4-4-4-4-4-4-4-| 
D-6-6-6-6-6-6-6-6-7-7-7-7-7-7-7-7-2-2-2-2-2-2-2-2-4-4-4-4-4-4-4-4-|
A-4-4-4-4-4-4-4-4-7-7-7-7-7-7-7-7-2-2-2-2-2-2-2-2-2-2-2-2-2-2-2-2-|
E-----------------4/5-5-5-4/5-5-5-0-0-0-0-0-0-0-0-----------------|

E-----------------------------------------------------------------|
B-----------------------------------------------------------------|
G-9-9-9-9-8-8-8-8-6-6-6-6-4-4-4-4---------------------------------|
D-9-9-9-9-8-8-8-8-6-6-6-6-4-4-4-4-7-------------------------------| 
A-7-7-7-7-6-6-6-6-4-4-4-4-2-2-2-2-7-------hold that last chord----|
E---------------------------------5-------------------------------|

Play Verse (5x)

Play Chorus, and instead of playing the last chord, jump straight into Bridge:


Bridge
E-----------------------------------------------------------------|
B-----------------------------------------------------------------|
G-----------------------------------------------------------------| 4x
D-------6-------6-------6-------6-------4-------4-------4-------4-| 
A-7-6-7---7-6-7---7-6-7---7-6-7---5-4-5---5-4-5---5-4-5---5-4-5---|
E-----------------------------------------------------------------|

E-----------------------------------------------------------------|
B-----------------------------------------------------------------|
G---------------------------------------------7-7-7-7-7-7-7-7-7-7-|
D-------6-------6-------6-------6-------1-7-7-7-7-7-7-7-7-7-7-7-7-|
A-7-6-7---7-6-7---7-6-7---7-6-7---5-4-5---5-5-5-5-5-5-5-5-5-5-5-5-|
E-----------------------------------------------------------------|


Final Chorus
E-----------------------------------------------------------------|
B-----------------------------------------------------------------|
G-------------------------------------------------4-4-4-4-4-4-4-4-| 
D-7-7-7-7-7-7-7-7-7-7-7-7-7-7-7-7-2-2-2-2-2-2-2-2-4-4-4-4-4-4-4-4-|
A-7-7-7-7-7-7-7-7-7-7-7-7-7-7-7-7-2-2-2-2-2-2-2-2-2-2-2-2-2-2-2-2-|
E-4/5-5-5-4/5-5-5-4/5-5-5-4/5-5-5-0-0-0-0-0-0-0-0-----------------|

E-----------------------------------------------------------------|
B-----------------------------------------------------------------|
G-6-6-6-6-6-6-6-6---------------------------------4-4-4-4-4-4-4-4-| 
D-6-6-6-6-6-6-6-6-7-7-7-7-7-7-7-7-2-2-2-2-2-2-2-2-4-4-4-4-4-4-4-4-|
A-4-4-4-4-4-4-4-4-7-7-7-7-7-7-7-7-2-2-2-2-2-2-2-2-2-2-2-2-2-2-2-2-|
E-----------------4/5-5-5-4/5-5-5-0-0-0-0-0-0-0-0-----------------|

E-----------------------------------------------------------------|
B-----------------------------------------------------------------|
G-------------------------------------------------4-4-4-4-4-4-4-4-| 
D-7-7-7-7-7-7-7-7-7-7-7-7-7-7-7-7-2-2-2-2-2-2-2-2-4-4-4-4-4-4-4-4-|
A-7-7-7-7-7-7-7-7-7-7-7-7-7-7-7-7-2-2-2-2-2-2-2-2-2-2-2-2-2-2-2-2-|
E-4/5-5-5-4/5-5-5-4/5-5-5-4/5-5-5-0-0-0-0-0-0-0-0-----------------|

E-----------------------------------------------------------------|
B-----------------------------------------------------------------|
G-6-6-6-6-6-6-6-6---------------------------------4-4-4-4-4-4-4-4-| 
D-6-6-6-6-6-6-6-6-7-7-7-7-7-7-7-7-2-2-2-2-2-2-2-2-4-4-4-4-4-4-4-4-|
A-4-4-4-4-4-4-4-4-7-7-7-7-7-7-7-7-2-2-2-2-2-2-2-2-2-2-2-2-2-2-2-2-|
E-----------------4/5-5-5-4/5-5-5-0-0-0-0-0-0-0-0-----------------|

E-----------------------------------------------------------------||
B-----------------------------------------------------------------||
G-9-9-9-9-8-8-8-8-6-6-6-6-4-4-4-4---------------------------------||
D-9-9-9-9-8-8-8-8-6-6-6-6-4-4-4-4-7-------------------------------||
A-7-7-7-7-6-6-6-6-4-4-4-4-2-2-2-2-7-------------------------------||
E---------------------------------4------/5-----------------------||