Jars of Clay - Ill Fly Away Text Guitar Tab

Learn song with the online tabulature player
Intro Lick
------------------------------------------------|
--------------------0-----------------------0---|
--0-----------0-----------0-----------0---------|
--------4-----------------------4---------------|
------------------------------------------------|
-----3-----3-----3-----3-----3-----3-----3------|

CHORUS
G G7 C G C G C G
I’ll fly away, Oh Glory, I’ll fly away
G Dsus Em G D G
When I die, hallelujah by and by, I’ll fly away

Intro – G C G C G C G x2

VERSE 1
G G7 C G C G C G
Some bright morning when this life is over, I’ll fly away
G C G
To a land on God’s celestial shore, I’ll fly away


Bridge – Em, G, Dsus, G

V. 2
When the shadows of this life have grown, I’ll fly away
Like a bird from these prison walls, I’ll fly away

V. 3
Oh how glad and happy when we meet, I’ll fly away
No more cold iron shackles on my feet, I’ll fly away

Solo – chorus chord pattern.

V. 4
Just a few more weary days and then, I’ll fly away
To a land where joy will never end, I’ll fly away

*Chorus repeats until done

Solo
E-----------------------------------------|
B-----------------------------------------|
G-----16----14----12----14-12----14-14-12-|
D-/12----12----12----12-------12----------|
A-----------------------------------------|
E-----------------------------------------|

E------------------------------------------------|
B------------------------------------------------|
G-------17----17----17----17------------16-14-12-|
D-12/14----14----14----14----(14)/12-------------|
A------------------------------------------------|
E------------------------------------------------|

E------------------------------------|
B------------------------------------|
G------------------------------------|
D------------5-5h7-5-^7-^7-^7-*(7)p5-|
A-----/5-5h7-------------------------|
E------------------------------------|

E------------------------------------|
B------------------------------------|
G------------------------------------|
D-----5-----5-7-5-^7-^7-^7-*(7)p5----|
A-5/7---7----------------------------|
E---------3------------------------3-|