Jason Aldean - Take A Little Ride Text Guitar Tab

Learn song with the online tabulature player
Standard tuneing

Intro E G D A

e---------------------------------------------------------------------------|
B--3/5--3-------------------------------------------------------------------|
G---------4--2--0h2--4p0----------------------------------------------------|
D---------------------------------------------------------------------------|
A---------------------------------------------------------------------------|
E---------------------------------------------------------------------------|

Verse 1

E                   G             D                   A
Been goin round and round all day bailin some hay and stacken it all up
E                  G              D              A                     aa
Can't wait for the sun to go down roll into town shine the old truck up,a
E            G                       D                 A               ui,
Swing by the quickstop grab a little shinner block the ease on out your
E           G            D
Way to your place around 8 o'clock

Chorus

     E                G               D               A
Well im just ready to ride this chevy ride this chevy down a little back road
E                        G            D                   A
Slide your pretty little self on over get a little closer turn up the radio
E                    G                D                  A
Put your pretty pink toes on the dash lean the seat back man i swear there aint
E                   G                          D                    A
Nothin looks better than that sweet tan little thing with nothin to do

I wanna take a little ride with you

Verse 2

E                        G                   D                       A
I hope your wearin those frayed out cut offs makes me wanna get lost out in the moonlight
E                 G                   D                   A
Drop the tailgate down on a turn road watch the corn grow baby thats a good night
E               G                  D                  A
Anyone from the heartland is gonna understand what im talkin about right
E            G              D
now ain't no doubt we got a game plan

Solo E G D A

e----------------------------------------------------------------12--12-12--|
B--15/17--15------------------------------------10-10--------8---15b--------|
G-------------14--12--------12h14p12---7h9p7-7--9--9---7h9p7--9-------------|
D---------------------12h14-----------------9-------------------------------|
A---------------------------------------------------------------------------|
E---------------------------------------------------------------------------|

e--12--12-12--12--12-12--12--12-12--12--12-12--------------------------------|
B--15b--------15b--------15b--------15b-------15b----------------------------|
G----------------------------------------------------------------------------|
D----------------------------------------------------------------------------|
A----------------------------------------------------------------------------|
E----------------------------------------------------------------------------|

Outro E G D A    song ends on an E

           x3               /                x1
e---------------------------/  ------------------------------------------------|
B--3/5--3-------------------/  -----5-5---5-5-5---5-5-5---5-5-5----------------|
G---------4--2--0h2p0--4p0--/  --7b-----7b------7b------7b---------------------|
D---------------------------/  ------------------------------------------------|
A---------------------------/  ------------------------------------------------|
E---------------------------/  ------------------------------------------------|