Jason Castro - Love Uncompromised Text Guitar Tab

Learn the song with the online tablature player
Love Uncompromised Solo

-|---7---5---5--------5---7---9---7----9---7-------------------|
-|---------------7---------------------------------------------|
-|-------------------------------------------------------------|
-|-------------------------------------------------------------|
-|-------------------------------------------------------------|
-|-------------------------------------------------------------|

-|---9---9---7/5-------7--5------5-----------------------------| [x2]
-|-----------------7----------7--------------------------------|
-|-------------------------------------------------------------|
-|-------------------------------------------------------------|
-|-------------------------------------------------------------|
-|-------------------------------------------------------------|