Jason Derulo - What If Text Guitar Tab

Learn song with the online tabulature player
----------------------------------------------------------------------------
WHAT IF – JASON DERULO
----------------------------------------------------------------------------
Tabbed by: JESSE KASSIS
Transcribed by: PAT SAWAYA

Tuning: Standard

e|--9----9-----8----8-----6----6-----4---4------------|
B|----------------------------------------------------|
G|----10---10-----8----8-----6----6----6---6----------|
D|----------------------------------------------------|
A|----------------------------------------------------|
E|----------------------------------------------------|

e|--6----6-----4----4------8----8-----8----8----------|
B|----------------------------------------------------|
G|-----6----6-----6----6------------------------------|
D|---------------------------10---10----10---10-------|
A|----------------------------------------------------|
E|----------------------------------------------------|

This is pretty much the whole song. This is what the guitar plays throughout the whole 
so if you listen carefully, you should hear it. It’s a pretty easy song so you should get 
feel of it straight away. Good luck and have fun playing.