Jason Michael Carroll - Livin Our Love Song Text Guitar Tab

Learn song with the online tabulature player
This is the intro for Livin' Our Love Song by Jason Micahel Carrol.

e|---------------------------------------------------------------------------|
B|---------------------------------------------------------------------------|
G|---2-------2-----0--2--0----2/4\2---0--------------------------------------|
D|----------------------------------------2--0-------------------------------|
A|---------------------------------------------------------------------------|
E|---------------------------------------------------------------------------|

e|---------------------------------------------------------------------------|
B|---------------------------------------------------------------------------|
G|---2-------2-----0--2--0----2/4\2---0--------------------------------------|
D|----------------------------------------2--0--2--4-4/5----5--4--0----------|
A|---------------------------------------------------------------------------|
E|---------------------------------------------------------------------------|