Jason Mraz - Be Honest Text Guitar Tab

Learn the song with the online tablature player
Jason Mraz - Be Honest

Dmaj7 : x57675
D/F#  : 097777
A/F#  : 997877
Em6/C#: x4545x
F#7   : 442322
Bm    : x24432
E     : 222100
Em7   : x79787
A6    : 7x567x

INTRO
Fingerstyle
e------x------x---x----x---|--x---x----x------x--x--|---7------x-----7--|
H------5------x---x----x---|--7---9----10-----5--5--|---7------7-----x--|
G------7------6-s-10-s-13--|--9-s-11-s-12-----x--x--|---8------9-----5--|
D------6------7-s-11-s-14--|--7-s-9--s-10-----7--6--|---7------7-----6--|end
A------7------6-s-10-s-13--|--8-s-10-s-11h13--7--7--|---7------8-----7--|
E------5h7----7-s-11-s-14--|--7-s-9--s-10-----7--5--|---9------7-----x--|

VERSE 1

   D/F#             A/F#           Em6/C#     F#7
Ok go, go hang your heart on, any tree,

        Bm                         E
You can make yourself available to anybody,

      Bm                            Em6/C#  F#7
Cause every livin' person knows you are a   prize,

     Bm                      E
Whichever way you go I'll be easy to find,

        Em7                   A6
I don't ask for much, just be honest, with me

        Em7              A6
I don't ask for much, be honest

VERSE 2

D/F#                    A/F#                         Em6/C#     F#7
Think of this song as a promise you can do what you want,

       Bm                           E
If you decide you wanna move into a new stage,

  Bm                           Em6/C#  F#7
Deleting me from pages in your mission statement,

   Bm                     E
My love is unconditional, make no mistake,

        Em7                   A6           D/F#    A/F#
I don't ask for much, just be honest, with me,

        Em7                   A6
I don't ask for much, just be honest, with me,

Bridge SOLO
e------5p3-----------------|
H------3---6-5-3-----------|
G------3---------2s3s2-----|
D------3-------------------|
A------3-------------------|
E------5-------------------|

CHORUS 1
play like Intro)

Who we are, when love is what it wants to be,     We  are  free, and we are,
e------x------x---------x--------------x--------|-----x-----x------x------|
H------5------x---------x--------------x--------|-----7-----9------10-----|
G------7------6-s-------10-s-----------13-------|-----9-s---11-s---12-----|
D------6------7-s-------11-s-----------14-------|-----7-s---9--s---10-----|
A------7------6-s-------10-s-----------13-------|-----8-s---10-s---11h13--|
E------5h7----7-s-------11-s-----------14-------|-----7-s---9--s---10-----|

having the best day ever by far, Being treated to the light, like a superstar
e--------x---------x-----------7-------------x------------7--|
H--------5---------5-----------7-------------7------------x--|
G--------x---------x-----------8-------------9------------5--|
D--------7---------6-----------7-------------7------------6--|
A--------7---------7-----------7-------------8------------7--|
E--------7---------5-----------9-------------7------------x--|

SOLO
same as Intro)
e------x------x---x----x---|--x---x----x------x--x--|---7------x-----7--|
H------5------x---x----x---|--7---9----10-----5--5--|---7------7-----x--|
G------7------6-s-10-s-13--|--9-s-11-s-12-----x--x--|---8------9-----5--|
D------6------7-s-11-s-14--|--7-s-9--s-10-----7--6--|---7------7-----6--|end
A------7------6-s-10-s-13--|--8-s-10-s-11h13--7--7--|---7------8-----7--|
E------5h7----7-s-11-s-14--|--7-s-9--s-10-----7--5--|---9------7-----x--|

Verse 3
same as verse 1 and 2)

I can hold space while you see what your heart has to say about me,
I acknowledge you for what you do to keep strong,
There's no dotted line to sign away your freedom,
I'll always stand beside you, don't get me wrong,
I don't ask for much, just be honest, with me,

Bridge SOLO
e------5p3-----------------|
H------3---6-5-3-----------|
G------3---------2s3s2-----|
D------3-------------------|
A------3-------------------|
E------5-------------------|

Outro

Who we are, when love is what it wants to be,     We  are  free, and we are,
e------x------x---------x--------------x--------|-----x-----x------x------|
H------5------x---------x--------------x--------|-----7-----9------10-----|
G------7------6-s-------10-s-----------13-------|-----9-s---11-s---12-----|
D------6------7-s-------11-s-----------14-------|-----7-s---9--s---10-----|
A------7------6-s-------10-s-----------13-------|-----8-s---10-s---11h13--|
E------5h7----7-s-------11-s-----------14-------|-----7-s---9--s---10-----|
    (Entire bar...............................Pluck once............Only)

having the best day ever by far,           Yes we are... Yes we are...
e--------x---------x-----------7-------------x------------7----|
H--------5---------5-----------7-------------7------------x----|
G--------x---------x-----------8-------------9------------5-X3-|
D--------7---------6-----------7-------------7------------6----|   END
A--------7---------7-----------7-------------8------------7----|
E--------7---------5-----------9-------------7------------x----|
    (Same like Intro............................)    (Last chord play 3 times)